Value Pac - We Are The Ones Chords & Tabs

 

We Are The Ones Chords & Tabs

Value Pac Chords & Tabs

Version: 2 Type: Bass Tab 0 ratings
1 star 2 stars 3 stars 4 stars 5 stars
comments

We Are The Ones Bass Tab

"We Are The Ones"
 Value Pac
 Jalapeno
 (c) 1997 Spinning Audio Vortex Publishing
 Tabbed By: Johnny Angel (StarFlyr99@aol.com)

 --Intro--
G-|------------------------|
D-|-----------3-4-6-4-3----|
A-|-4------4------------6--|
E-|------------------------|

 --Verse--
G-|-----------------------------|
D-|----6-----4------------------|
A-|-4-----2--------1--2-4-4-2-1-|
E-|-------------2---------------|

G-|-----------------------------|
D-|----6-----4-----4--2---1-2---|
A-|-4-----2---------------------|
E-|-------------2---------------|

 --Prechorus--
G-|------------------------------|
D-|-----------------6-6-6-6-6----|
A-|---------6-6-6-6--------------|
E-|-4-4-4-4----------------------|
[ Tab from: http://www.guitartabs.cc/tabs/v/value_pac/we_are_the_ones_btab_ver_2.html ]
 --Chorus--
G-|---------------------------------------------------|
D-|-------3-4-6---------------------------6-4--3--4-3-|
A-|-4--4-------------1--2-4---------------------------|
E-|-------------2--2---------4--4-4--4-4--------------|

G-|---------------------------------------------------|
D-|-------3-4-6---------------------------------------|
A-|-4--4-------------1--1-4---------------6-4--3--4-3-|
E-|-------------2--2---------4--4-4--4-4--------------|

 --Bridge--
G-|-------------------------------------------------------|
D-|-------------------------------------------------------|
A-|-2--2--2-2-2----------------2--2--2-2-2----------------|
E-|-------------2--2-2--2--2-2-------------4--4-4--4--4-4-|

G-|-------------------------------------------------------|
D-|-------------------------------------------------------|
A-|-2--2--2-2-2-------------------------------------------|
E-|-------------2--2-2--2--2-2-4--4--4-4-4-4--4-4--4--4-4-|

During the solo play the Chorus.
Comments