Value Pac - Happy Star Chords & Tabs

 

Happy Star Chords & Tabs

Value Pac Chords & Tabs

Version: 1 Type: Bass Tab 0 ratings
1 star 2 stars 3 stars 4 stars 5 stars
comments

Happy Star Bass Tab

  Song: Happy Star
Artist: Value Pac
Album: Value Pac
Tabbed By: Justbh7867@aol.com
Corrected By: Kyle Kensrue
E-Mail: dougk@intellistar.com


Intro
g-----------------------
d-------------------976-
a----6797976----6797----
e-77---------77---------
[ Tab from: http://www.guitartabs.cc/tabs/v/value_pac/happy_star_btab.html ]
Verse and Solo
g----------------------------|------------------------
d---6h7p6--------------------|---6h7p6----------------
a-77--------679---4h5p4--679-|-77-------679-----------
e----------7----55------7----|---------7----5555-7777-

Pre-Chorus
g-----------------------------
d-----------------------------
a-4444-----4444------44-------
e------5555-----7777----55-7--

Chorus
g----------------
d----------------
a-777----999-----
e-----99-----77--

Comments