Valley Of Chrome - Forever Young Chords & Tabs

 

Forever Young Chords & Tabs

Valley Of Chrome Chords & Tabs

Version: 2 Type: Tab 0 ratings
1 star 2 stars 3 stars 4 stars 5 stars
comments

Forever Young Tab

Tabbed by-RONNCECIL MANAHAN
Email add- cecil080804@yahoo.com
Forever Young Tab by Valley of Chrome
Tuning: (standard)
(Intro1 LEAD DISTORTED)

(Guitar 1)
E----------------------------------------------------|
B----5-5-7-8--8-7-108-7-8-7-5-----------------------|
G----------------------------------------------------|
D----------------------------------------------------|
A----------------------------------------------------|
E----------------------------------------------------|
(INTRO 2-RHYTHM-DISTORTED)
(Guitar 2)(GUITAR 1 CONTINOUS INTRO 1)
I-------------------------------------|I
I-------------------------------------|I
G-------------------------------------|I
D---2-------5-------7-------10--------|I
A---2-------5-------7-------10--------|I
E---0-------3-------5--------8--------|I

(INTRO 3-) GUITAR 1 CONTINOUS INTRO 1)
[ Tab from: http://www.guitartabs.cc/tabs/v/valley_of_chrome/forever_young_tab_ver_2.html ]
I--------------------------------------------------------------------------|I
I--------------------------------------------------------------------------|I
G--------------------------------------------------------------------------|I
D---222222222-------555555555-----777777777---10-10-10-10-10-10-10-10-10---|I
A---222222222-------555555555-----755555555---10-10-10-10-10-10-10-10-10---|I
E---000000000-------333333333-----555555555---8--8---8--8--8--8--8--8--8---|I

(Verse just do intro 3)
(GUITAR 1 AND 2)

PRE CHORUS
( / -SLIDE)
G-----------------------55555555555------|I
D--22---5/7-7----------xxxXXXXXXXX------|I
A--22---5/7-7----------33333333333------|I
E--00---3/5-5---------------------------|I

CHORUS
G------------13----------------13--------------|I
D---2-2------X--------2-2------X-------7-10----|I
A---2-2------11-------2-2------11------7-10----|I
E---0-0---------------0-0--------------58----|I

SA BRIDGE PART-INTRO2 AT YUNG INTRO1 SABAYAN LANG

THANK YOU SA 2LONG NI GANJAMAN NA KABANDA KO PARA MABUO YUNG TAB NA 2!!THANX DIN SA REST 
THE BAND,,thnx din sa mahal ko sa supporta nya sa amin.. please rate na lng po!!for 
and suggestions pki send na lang sa email ko..
Comments