Valient Thorr - Palmreader Chords & Tabs

 

Palmreader Chords & Tabs

Valient Thorr Chords & Tabs

Version: 1 Type: Tab

Palmreader Tab

   
Dude... just screwing around and I figured this out. It's basically right but someone 
to figure out the rest of the song


E------------------------------|
B--------------34--------------|
G----------0------3b------5----|
D--------0----------------5-5--|
A------1------------------3-5--|
E----3----------------------3--|

Repeat this a few times then....
[ Tab from: http://www.guitartabs.cc/tabs/v/valient_thorr/palmreader_tab.html ]
E-------------------------------------------|
B----------34-------------------------------|
G--------0----3b-----5----------------------|
D------0----------3--3----------------------|
A----1------------3--3----------------------|
E-3---------------1-------------------------|

E---------------------------------------------|
B---------------------------------------------|
G----------------5----------------------------|
D-5------3-------3--X2------------------------|
A-5x10---3-X2----3----------------------------|
E-3------1------------------------------------|


Until the verse then I'm lost
:-D

But yeah...At least you can play that beastly man rockin intro.