Valgre Raimond - Saarmaa Valss Chords & Tabs

 

Saarmaa Valss Chords & Tabs

Valgre Raimond Chords & Tabs

Version: 1 Type: Tab 0 ratings
1 star 2 stars 3 stars 4 stars 5 stars
comments

Saarmaa Valss Tab

Loo kirutas: Raimond Valgre
Lugu: Saaremaa valss
[tabbed by: Rauno Somelar]
grazzy@hot.ee


E|-------------------------------------------------------
B|------------------------------------1-1-------1--------
G|----2-2-2--0------------0-0-------0-----0---0---2------
D|-------------3-------2------0---2---------3------------
A|-3-------------3-2-3----------3------------------------
e|-------------------------------------------------------
  seal laupäevaõhtuselt lõhnavad kased kui nendesse 
  vajutan hõõguva näo
E|-------------------------------------------------------
B|-------------------------0-1-0-------------------------
G|-2---2-2-0-----------0-2-------0-2-----------0---------
D|-----------3-2-0-2-3---------------3-3-0-2-3-----------
A|---0---------------------------------------------------
e|-------------------------------------------------------
  ja pühapäev hinges sind uskida laseb et õnne vaid 
  kukuvad käod

ref:

[ Tab from: http://www.guitartabs.cc/tabs/v/valgre_raimond/saarmaa_valss_tab.html ]
E|-------------------------------------------------------
B|-------------------------------------------------------
G|---------0-0-0-2-2-0-----2-0-0-------------------------
D|---3-3-3-------------3-3-------2----2-3-3-0-3----------
A|-3-------------------------------3-3-------------------
e|-------------------------------------------------------
  oh keeruta lennuta linalakk neidu kel silmist nii kelmikaid
  sädemeid lööb

E|------------------------------------------------------- 
B|---3---3-1-----0---0-----------0------------3-1-------- 
G|-----4-----2-2---0---2-----------2--------0------------
D|-3---------------------3-3-0-3------3-3-2--------------
A|-------------------------------------------------------
e|-------------------------------------------------------
  ei sellist kll maailmas kusagil leidu kui saaremaa heinamaal
  juunikuu ööl

E|------------------------------------------------------- 
B|---3---3-1-----0---0-----------0---------3-2----------- 
G|-----4-----2-2---0---2-----------2-----------2-3-------
D|-1---------------------3-3-0-3------3-3----------------
A|-------------------------------------------------------
e|-------------------------------------------------------

(paremini kõlaks siis, kui seda mängiks capoga kugagilt kõrgemalt...)

[tabbed by: Rauno Somelar]
grazzy@hot.ee
Comments