Valens Richie - La Bamba Chords & Tabs

 

La Bamba Chords & Tabs

Valens Richie Chords & Tabs

Version: 4 Type: Tab 2 ratings
1 star 2 stars 3 stars 4 stars 5 stars
comments

La Bamba Tab

Intro: e----------- ------------ --------------- --------------
       B----------- ------------ --------------- --------------
       G----------- ---0---2-0-- --------------- --------0-----
       D----------- -2---3------ ------0-3-3---- --2-0-----2---
       A----0-2-3-- ------------ ----2---------- ------3-------
       E-3--------- ------------ --3------------ --------------

-----------
-----------
---2-0-----
-3---------
-----------
-----------
[ Tab from: http://www.guitartabs.cc/tabs/v/valens_richie/la_bamba_tab_ver_4.html ]
Verse: e-1-1-1-1-1-0--- -1-1-1-1-1-0- --------------- -1-0---0-
       B-------------1- ------------- -1-1-1-1-3-0-3- -----3---
       G--------------- ------------- --------------- ---------
       D--------------- ------------- --------------- ---------
       A--------------- ------------- --------------- ---------
       E--------------- ------------- --------------- ---------

-----------R      ------------ ------
-1-1-1-----E   V  ------------ ----0-
-------2-0-P T E  -0-0-0-0-0-- --2---
-----------E H R  ------------ ------
-----------A E S  ------------ ------
-----------T   E  ------------ ------

Bridge: e------- ------------ -0------ ----------- ------- -----------
        B-1---0- ------------ ---1-3-- ----------- -1---0- -----------
        G---2--- -0-0-0-0-0-- -------- -0-0-0-0-0- ---2--- -0-0-0-0-0-
        D------- ------------ -------- ----------- ------- -----------
        A------- ------------ -------- ----------- ------- -----------
        E------- ------------ -------- ----------- ------- -----------

-0-----    Go back to verse. HAVE FUN WITH THE NEW TAB!!!!:)
---1-3-
-------
-------
-------
-------
Comments