Valens Richie - La Bamba Chords & Tabs

 

La Bamba Chords & Tabs

Valens Richie Chords & Tabs

Version: 3 Type: Tab 1 rating
1 star 2 stars 3 stars 4 stars 5 stars
comments

La Bamba Tab

   
#----------------------------------PLEASE NOTE---------------------------------#
#This file is the author's own work and represents their interpretation of the #
#song. You may only use this file for private study, scholarship, or research. #
#------------------------------------------------------------------------------#

La Bamba

Richie Valens

by Brian S.

[ Tab from: http://www.guitartabs.cc/tabs/v/valens_richie/la_bamba_tab_ver_3.html ]
Intro :
  G            C       F         G  
e----------------------------------------------------------------|
b----------------------------------------------------------------|
g-------------------0-----2--0vv---------------------------------|
d-----------------2----3-----------------------------------------|
a--2--2--0--2--3v--------------------2--0--3--3--2--0------------|
e--3--3---------------------------3------------------------------|

			        Verses : (guitar 1 does lick, 2 does chords)
				 C       F           G
e--------------------------------------------------------------------------|
b--------------------------------------------------------------------------|
g-------0-----2--0vv-----------------0------2--0vv-------------------------|
d-----2----3-----------------------2-----3---------------------------------|
a--3v----------------------------3-----------------------2--0--3--3--2--0--|
e----------------------------------------------------3---------------------|
		    la... bamba
Comments