Valens Richie - La Bamba Chords & Tabs

 

La Bamba Chords & Tabs

Valens Richie Chords & Tabs

Version: 2 Type: Tab 2 ratings
1 star 2 stars 3 stars 4 stars 5 stars
comments

La Bamba Tab

this song is from a cd i have but its not the original song 
this version of the song sounds good.

intro
e---------------------------------------------------------
b---------------------------------------------------------
g---------------7--5--------------------------------7--5--
d--------5--7-8----------------5--8-8-7-5---7-5-8---------
a------8--------------------7-------------8---------------
e------------------------8--------------------------------
[ Tab from: http://www.guitartabs.cc/tabs/v/valens_richie/la_bamba_tab_ver_2.html ]
 these are small solos after the intro
solo #1
e-------------------------------------
b-------------------------------------
g-5-------------5------------5555-----
d---8-7-5---------8-7-5---88----------
a---------8-------------88------------
e-----------8-------------------------
 solo#2
e---------------------------------------
b---------------------------------------
g--5^ 5^-5^-7^-5^-7^-5-5----------------
d------------------------8-7-77-5-------
a---------------------------------8-7---
e-------------------------------------8-
 power chords are c and a#
Comments