Vai Steve - Voodoo Acid Chords & Tabs

 

Voodoo Acid Chords & Tabs

Vai Steve Chords & Tabs

Version: 1 Type: Tab 0 ratings
1 star 2 stars 3 stars 4 stars 5 stars
comments

Voodoo Acid Tab

Voodoo Acid
Steve Vai
Intro Solo

May not be precise but it is a 
good outline of the solo.  Mr. Vai adds
many little hammers and pull offs that were
too quick to tab.

---------------------------------------
-------------13------------------------
-11b13r11--13---11\8-9--9-9h12p9-9-8~--
---------------------------------------
---------------------------------------
---------------------------------------

----------------------------------------------------
----------------------------------------------------
----------------------------------------------------
-11-11p10-11-11p10-11-11p10-11-10h11p10----10-11-13-
----------------------------------------11----------
----------------------------------------------------
[ Tab from: http://www.guitartabs.cc/tabs/v/vai_steve/voodoo_acid_tab.html ]
-------------------------------
-------------------------------
-------------------------------
---10-11-13--------------------
-11----------11-9~-------------
--------------------11-9h11-11-

-14b16r14-----16-20-16-14--16-14-11-16-14-11-------
-------------------------16-----------------14/16~-
---------------------------------------------------
---------------------------------------------------
---------------------------------------------------
---------------------------------------------------

-21-20--17-------------------------------------------------------
----------21-20-19--19-20-21-20-19---------------13--14\13-------
------------------20--------------20-18-20--11h13--11-----13-13~-
-----------------------------------------------------------------
-----------------------------------------------------------------
-----------------------------------------------------------------
Comments