Vai Steve - My Guitar Wants To Kill Your Mama Chords & Tabs

 

My Guitar Wants To Kill Your Mama Chords & Tabs

Vai Steve Chords & Tabs

Version: 1 Type: Tab 0 ratings
1 star 2 stars 3 stars 4 stars 5 stars
comments

My Guitar Wants To Kill Your Mama Tab

   
##################################################################################
# This file is the author's own work and represents their interpretation of the  #
# song. You may only use this file for private study, scholarship, or research.  #
##################################################################################
[ Tab from: http://www.guitartabs.cc/tabs/v/vai_steve/my_guitar_wants_to_kill_your_mama_tab.html ]
G3 - My Guitar Wants to Kill Your Mama
Zappa Cover
--------------------------------------
   F#                           
-------------------------------|
-------------------------------|
-------------------------------|
-------------------------------|
--4---4-4-4--4---------2h1-----|
--0h2-2-2-2--2-0--0--0-----2h0-|

  B                           
------------------------------|
------------------------------|
------------------------------|
--4--x-x-4--4-----------4-4-4-|
--2--0-0-2--2-0--0--0-0h2-2-2-|
------------------------------|

  C#                    
------------------------------|
------------------------------|
------------------------------|
--6--6--6--6----6-------------|
--4--4--4--4----4-------------|
------------------------------|

intro: F#
Comments