Vai Steve - Beetovans 5th Chords & Tabs

 

Beetovans 5th Chords & Tabs

Vai Steve Chords & Tabs

Version: 1 Type: Tab 1 rating
1 star 2 stars 3 stars 4 stars 5 stars
comments

Beetovans 5th Tab

Have fun, hope it doesnt suck.



E[------------------------------------------------------------------------------------------------------
B[-----------------------------------------------------------------------------------------------------
G[------------------------------------------------------9 9 9----11 11 9 ---11 11 9 ---11 11 9 -
D[---------------------12 12 12 9 ------------------------   11----------12----------12----------12-
A[-9 9 9 10 9 9 9 9 --------------9 9 9 10 9 9 9 9 ------------------------------------------------
E[-------------------------------------------------------------------------------------------------------
[ Tab from: http://www.guitartabs.cc/tabs/v/vai_steve/beetovans_5th_tab.html ]
E[----------------------------------------------------------------------------------------------------
B[----------------------------------------------------------------------------------------------------
G[------12 12 12 9 6 6 6 3 0 0 0 ------------12 12 12 9 6 6 6 3 0 0 0 ----------------------4-
D[--9 --------------------------------4------ 4-------------------------------4 2 0 ------2 4 5 4--
A[----4------------------------------------------------------------------------------4 2 2 ---------
E[----2---------------------------------2 2 2--------------------------------------------------------

E[--------------------------------------------------------------------------------------------
B[----------------------------------------------------------------------------------12 14 
G[-6 7 4 6 6 7 6 6 9 9 5 5 10 10 9 9 12 12 11 11 14 14 12 12 15 15 15 -----------
D[-------------------------------------------------------------------------------------------
A[-------------------------------------------------------------------------------------------
E[--------------------------------------------------------------------------------------------

E[------------------------------------------------------------------------------------------------- 19
B[--15 14 15 14 15 14 12 12 9 -------15 15 12 --------18 18 15 ------- 21 21 18-----
G[----------------------------------10 ---------------13 ---------------16 ---------------19 ---------
D[--------------------------------------11 ---------------14 ---------------17---------------20-------
A[----------------------------------------------------------------------------------------------------
E[-----------------------------------------------------------------------------------------------------

E[------------
B[------------
G[------------
D[------------
A[--4--------
E[--2---------
Comments