Vai Steve - Beethovens 5th Chords & Tabs

 

Beethovens 5th Chords & Tabs

Vai Steve Chords & Tabs

Version: 1 Type: Tab 1 rating
1 star 2 stars 3 stars 4 stars 5 stars
comments

Beethovens 5th Tab

S S S S S S S S E S q 
|---------------------------| 
|---------------------------| 
|---------------------------| 
|------------------12-12-9--| 
|-9-9-9-10-9-9-9-9----------| 
|---------------------------| 


S S S S S S S S E S Q. S S S Q S S S Q 
|--------------------------|------------------------| 
|--------------------------|------------------------| 
|------------------9-9-----|-11-11-9-----11-11-9----| 
|----------------------11--|---------12----------12-| 
|-9-9-9-10-9-9-9-9---------|------------------------| 
|--------------------------|------------------------| 


S S S Q Q W.. S S S S S S S S S S S S S S S S 
|--------------------|------------------------------------| 
|--------------------|------------------------------------| 
|-11-11-9------------|-12-12-12-9-6-6-6-3-0-0-0-----------| 
|---------12--9--4---|--------------------------2-------4-| 
|----------------4---|----------------------------4-------| 
|----------------2---|------------------------------2-2---| 


S S S S S S S S S 
|----------------------| 
|----------------------| 
|-12-12-12-9-6-6-6-3-0-| 
|----------------------| 
|----------------------| 
|----------------------| 


S S S S S S Q S S S Q S S S Q S S S S S S S S S S S S S S S S S S 
|---------------|------------------------------------------------------------| 
|---------------|------------------------------------------------------------| 
|-0-0-----------|------------4-6-7---4-6-7-6-6-9-9-7-7-11-11-9-9-12-12-11-11-| 
|-----4-2-0-----|---2-4-5--4-------4-----------------------------------------| 
|-----------4-2-|-2----------------------------------------------------------| 
|---------------|------------------------------------------------------------| 


~~ 
S S S S S S S S S Q X 
|--------------------------------|-----| 
|--------------------------------|-13--| 
|-14-14-12-12-16-16-15-15-16--16-|--x--| 
|--------------------------------|--x--| 
|--------------------------------|--x--| 
|--------------------------------|-----| 

[ Tab from: http://www.guitartabs.cc/tabs/v/vai_steve/beethovens_5th_tab.html ]
S S S S S S S S S S S S S S S S S S 
|-------------------------------------------------------| 
|--12-12-9----------9-15-12----------15--18-15----------| 
|----------10----10---------13----13-----------16----16-| 
|-------------12---------------15-----------------18----| 
|-------------------------------------------------------| 
|-------------------------------------------------------| 


~~ ~~ 
S S S S S S S S H E E E E Q S. S S S S S S S S 
|-----------------------19-----|-------|-------------------------------------| 
|-15--21-18----------18--------|-------|-------------------------------------| 
|-----------19----19-----------|-------|----------13-14--7--7-----7--9-----9-| 
|--------------21-----------19-|-------|-15-14-15---------------7--------7---| 
|---------------------------19-|-------|----------------------5--------7-----| 
|---------------------------17-|-------|-------------------------------------| 


S S S S S S S S Q S S S S S S E 
|-----------------------------------------------17-| 
|-----------------------------------------14-17----| 
|-11-------11--12-------12-14----------14----------| 
|-------12-----------14----------12-14-------------| 
|----12-----------14----------12-------------------| 
|--------------------------------------------------| 


S S S T T T S S S S S S S S S S S 
|-19-17-15-15h17p15----------------------12----------| 
|-------------------19-17-15-15-14-12-14----15-12----| 
|-------------------------------------------------12-| 
|----------------------------------------------------| 
|----------------------------------------------------| 
|----------------------------------------------------| 


T T T T S S T T T S S S Q S S S Q S S S Q 
|-------------------------------------------------|------------| 
|-12-15-14-12-------------------------------------|------------| 
|-------------12----14-16-14-------------------7--|-------7----| 
|----------------14----------17-16-14-7--7-7-7-7--|-7-7-7-7----| 
|----------------------------------------7-7-7-5--|-7-7-7-5----| 
|----------------------------------------5-5-5-5--|-5-5-5-5----| 


Tablature Legend 
---------------- 
h - hammer-on 
p - pull-off 
b - bend 
pb - pre-bend 
r - bend release (if no number after the r, then release immediately) 
/ - slide into or out of (from/to "nowhere") 
s - legato slide 
S - shift slide 
- natural harmonic 
[n] - artificial harmonic 
n(n) - tapped harmonic 



i hope you can understand this....... 
have fun......... fr dave: dude there are bends and pinches and sweep
so i put some you might now
Comments