Vader - Silent Scream Chords & Tabs

 

Silent Scream Chords & Tabs

Vader Chords & Tabs

Version: 1 Type: Tab 0 ratings
1 star 2 stars 3 stars 4 stars 5 stars
comments

Silent Scream Tab

Band: Vader
Album: Future of the Past
Song: Silent Scream
by vaderfan
*** ORIGINALLY BY "Rob Menak"


------------------------|----------------------------------||-----------------
------------------------|----------------------------------||-----------------
------------------------|---------------------------------0||-----------------
-9-8--------------------|---------------------------------0||-----------------
-7-7--------------------|----------------------------------||-----------------
--------0-0-0-0-0-0-0-0-|-0-0-0-0-0-0-0-0-0-0-0-0-0-0-0-0--||-----------------
                                                   4 Times

--------------------------|--------------------------|------------------------
--------------------------|--------------------------|------------------------
--------------------------|--------------------------|------------------------
-9-8---------9------------|-8-------------10---------|------------------------
-7-7-----------10---------|---9---------8------------|------------------------
-----0-0-0-0------0-0-0-0-|-----0-0-0-0------0-0-0-0-|------------------------

[ Tab from: http://www.guitartabs.cc/tabs/v/vader/silent_scream_tab.html ]
----------------------------------------------||------------------------------
----------------------------------------------||------------------------------
----------------------------------------------||0-----------------------------
----------------9------------8----------------||0----------------9------------
-7----------------10-----------9---------8-10-||--7----------------10---------
-0--0-0-0-0-0-0------0-0-0-0-----0-0-0-0------||--0--0-0-0-0-0-0------0-0-0-0-


------------------|-----------------------------------------------||----------
------------------|-----------------------------------------------||----------
------------------|----------------------------------------------0||----------
-8-------------10-|----------------9------------8----------------0||----------
---9---------8----|-7----------------10-----------9---------8-10--||----------
-----0-0-0-0------|-0--0-0-0-0-0-0------0-0-0-0-----0-0-0-0-------||----------
                                           Repeat Throughout Verse

-||---------|-------|--------------------------|-----------------||-----------
-||---------|-------|--------------------------|-----------------||-----------
-||0--------|-------|--------------------------|----------------0||-----------
-||0-9------|-8-----|-2----------0-2---------0-|-2-------0-2--3-0||-----------
-||--9------|-8-----|-2----------0-2---------0-|-2-------0-2--3--||-----------
-||--7------|-6-----|-0--0-0-0--------0-0-0----|---0-0-0---------||-----------
     Chorus Riff

------------|--------------------------||-------------------------------------
------------|--------------------------||-------------------------------------
------------|--------------------------||-------------------------------------
-2---0-2--0-|-2--0-2-------------------||-------------------------------------
-2---0-2--0-|-2--0-2-/6\---------------||-------------------------------------
-0----------|--------/6\---------------||-------------------------------------
                         Back to Verse
Comments