Vader - Reign In Blood Chords & Tabs

 

Reign In Blood Chords & Tabs

Vader Chords & Tabs

Version: 1 Type: Tab 0 ratings
1 star 2 stars 3 stars 4 stars 5 stars
comments

Reign In Blood Tab

Band: Vader
Album: Live In Japan
Song: Reign In Blood
by vaderfan
*** ORIGINALLY BY "CARNAL" ***


 2x:
e-----------------------------|
B-----------------------------|
G---------3-4-3----3-2----2-1-|
D--------2-------4------3-----|
A--2-2-2----------------------|
E--0-0-0----------------------|

  I gitara (2x)                       II gitara (2x)
e-----------------------------| e-----------------------------|
B-----------------------------| B---------4-5-4----4-3----3-2-|
G---------3-4-3----3-2----2-1-| G----------------4------3-----|
D--------2-------4------3-----| D-----------------------------|
A--2-2-2----------------------| A--2-2-2----------------------|
E--0-0-0----------------------| E--0-0-0----------------------|
                 Slayer!!!

 Fig.1 (4x)
e---------------------------------------------|
B---------------------------------------------|
G---------------------------------------------|
D-------------------------------------3-2-----|
A-------------------------------2m-3m-----3-2-|
E--0\0\0\0\0\0\0\0\0\0\0\0\0m-1m--------------|

 Fig.2 gitara I:         II gitara:
e---------------|       e-----------------------------------------|
B---------------|       B-----------------------------------------|
G---------------|       G-----------------------------------------|
D---------------|       D-----------------------------------------|
A-4-4-5-4-4-5-4-|       A---------------------------------------4-|
E-2-2-3-2-2-3-2-|       E-222-2~3-2-2~4-2-2~3-2-2~4-2-2~3-2-2~4-2-|

 Fig.3 obie gitary:
e-----------------------------------------|
B-----------------------------------------|
G-----------------------------------------|
D-----------------------------------------|
A---------------------------------------4-|
E-222-2~3-2-2~4-2-2~3-2-2~4-2-2~3-2-2~4-2-|

e-----------------------------------------|
B-----------------------------------------|
G-----------------------------------------|
D-----------------------------------------|
A---------------------------------------7-|
E-222-2~3-2-2~4-2-2~3-2-2~4-2-2~3-2-2~4-5-|

e-----------------------------------------|
B-----------------------------------------|
G-----------------------------------------|
D-----------------------------------------|
A---------------------------------------4-|
E-222-2~3-2-2~4-2-2~3-2-2~4-2-2~3-2-2~4-2-|

e-----------------------------------------|
B-----------------------------------------|
G-----------------------------------------|
D-----------------------------------------|
A---------------------------------7-7-7-7-|
E-222-2~3-2-2~4-2-2~3-2-2~4-2-2~3-5-5-5-5-|

e-----------------------------------------|
B-----------------------------------------|
G-----------------------------------------|
D-----------------------------------------|
A---------------------------------------4-|
E-222-2~3-2-2~4-2-2~3-2-2~4-2-2~3-2-2~4-2-|

e-----------------------------------------|
B-----------------------------------------|
G-----------------------------------------|
D-----------------------------------------|
A---------------------------------7-7-7-7-|
E-222-2~3-2-2~4-2-2~3-2-2~4-2-2~3-5-5-5-5-|

Fig.4  x8
e-----------------------|
B-----------------------|
G-----------------------|
D---------9-8-------4-7-|
A-2--2-2--7-6-2-2-2-2-5-|
E-0--0-0------0-0-0-----|
  Trapped in purgatory
  A lifeless object alive
  Awaiting reprisal
  Death will be their acquisition
  The sky is turning red
  Return to power drawns near
  Fall into me, the sky's crimson tears
  Abolish the rules made of stone

 Fig.5 x2
e-------------------------------------------|
B-------------------------------------------|
G-------------------3-2---------------------|
D----2-5-2-3----2-5------66666666666666-----|
A-2----------2--------------------------7-7-|
E-0----------0--------------------------5-5-|

 Fig.6 x2
e-------------------------------------------|
B-------------------------------------------|
G-------------------3-2---------------------|
D----2-5-2-3----2-5------66666666666666-----|
A-2----------2--------------------------7-7-|
E-0----------0--------------------------5-5-|
  Pierced from below, souls of my treacherous past
  Betrayed by many, now ornaments dripping above

 Fig.7 obie gitary x2
e-----------------------------|
B-----------------------------|
G---------3-4-3----3-2----2-1-|
D--------2-------4------3-----|
A--2-2-2----------------------|
E--0-0-0----------------------|

 I gitara (2x)                       II gitara (2x)
e-----------------------------| e-----------------------------|
B-----------------------------| B---------4-5-4----4-3----3-2-|
G---------3-4-3----3-2----2-1-| G----------------4------3-----|
D--------2-------4------3-----| D-----------------------------|
A--2-2-2----------------------| A--2-2-2----------------------|
E--0-0-0----------------------| E--0-0-0----------------------|
  Awaiting the hour of reprisal
  Your time slips

 Fig.8 obie gitary x2
e------------------------------------------|
B------------------------------------------|
G------------------------------------------|
D------------------------------------------|
A--2-2--2-2--2-2--2-2--2-2--2-2--2-2--2-2--|
E--0-0--0-0--0-0--0-0--0-0--0-0--0-0--0-0--|

 I gitara gra Fig.8 x2
 a II gitara gra Fig.9 x4:
e-----------------------------------|
B-----------------------------------|
G-----------------------------------|
D--------5m-9----5m-8----5m-7---5/4-|
A--7m-7m------7m------7m-----7------|
E-----------------------------------|
 Obie gitary Fig.9 x2

 Fig.10 x4
e----------------------------------------|
B----------------------------------------|
G----------------------------------------|
D----------------------------------------|
A--------5/9-------5/8----------7----5/4-|
E--0m-0m-3/7-0m-0m-3/6-0m-0m-0m-5-0m-3/2-|

  Raining blood
  From a lacerated sky
  Bleeding its horror
  Creating my structure now I shall reign in blood!

 Fig.11
e------------------------------|------------------------------|
B------------------------------|------------------------------|
G------------------------------|------------------------------|
D------------------------------|------------------------------|
A---------222222-111111--------|---------222222-111111--------|
E--000000---------------333333-|--000000---------------333333-|

e------------------------------|------------------------------|
B------------------------------|------------------------------|
G------------------------------|------------------------------|
D------------------------------|------------------------------|
A---------222222-111111--------|---------222222-111111--------|
E--000000---------------333333-|--000000---------------333333-|

e----------------------------------------------|
B----------------------------------------------|
G----------------------------------------------|
D----------------------------------------------|
A---------333333-222222--------333333-22222-33-|
E--444444---------------444444-----------------|

e------------------------------|------------------------------|
B------------------------------|------------------------------|
G------------------------------|------------------------------|
D------------------------------|------------------------------|
A---------222222-111111--------|---------222222-111111--------|
E--000000---------------333333-|--000000---------------333333-|

 teraz tremola w ruch i na koniec jeszcze ten akordzik:

[ Tab from: http://www.guitartabs.cc/tabs/v/vader/reign_in_blood_tab.html ]
e------|
B------|
G------|
D------|
A--4---|
E--2---|
===========Vader
REIGN IN BLOOD

płyta: "Live In Japan"
muzyka: Jeff Hanneman
słowa: Jeff Hanneman, Kerry King
oryginalna wersja: Slayer z płyty "Reign In Blood"
tabbed by Carnal

 2x:
e-----------------------------|
B-----------------------------|
G---------3-4-3----3-2----2-1-|
D--------2-------4------3-----|
A--2-2-2----------------------|
E--0-0-0----------------------|

  I gitara (2x)                       II gitara (2x)
e-----------------------------| e-----------------------------|
B-----------------------------| B---------4-5-4----4-3----3-2-|
G---------3-4-3----3-2----2-1-| G----------------4------3-----|
D--------2-------4------3-----| D-----------------------------|
A--2-2-2----------------------| A--2-2-2----------------------|
E--0-0-0----------------------| E--0-0-0----------------------|
                 Slayer!!!

 Fig.1 (4x)
e---------------------------------------------|
B---------------------------------------------|
G---------------------------------------------|
D-------------------------------------3-2-----|
A-------------------------------2m-3m-----3-2-|
E--0000000000000m-1m--------------|

 Fig.2 gitara I:         II gitara:
e---------------|       e-----------------------------------------|
B---------------|       B-----------------------------------------|
G---------------|       G-----------------------------------------|
D---------------|       D-----------------------------------------|
A-4-4-5-4-4-5-4-|       A---------------------------------------4-|
E-2-2-3-2-2-3-2-|       E-222-2~3-2-2~4-2-2~3-2-2~4-2-2~3-2-2~4-2-|

 Fig.3 obie gitary:
e-----------------------------------------|
B-----------------------------------------|
G-----------------------------------------|
D-----------------------------------------|
A---------------------------------------4-|
E-222-2~3-2-2~4-2-2~3-2-2~4-2-2~3-2-2~4-2-|

e-----------------------------------------|
B-----------------------------------------|
G-----------------------------------------|
D-----------------------------------------|
A---------------------------------------7-|
E-222-2~3-2-2~4-2-2~3-2-2~4-2-2~3-2-2~4-5-|

e-----------------------------------------|
B-----------------------------------------|
G-----------------------------------------|
D-----------------------------------------|
A---------------------------------------4-|
E-222-2~3-2-2~4-2-2~3-2-2~4-2-2~3-2-2~4-2-|

e-----------------------------------------|
B-----------------------------------------|
G-----------------------------------------|
D-----------------------------------------|
A---------------------------------7-7-7-7-|
E-222-2~3-2-2~4-2-2~3-2-2~4-2-2~3-5-5-5-5-|

e-----------------------------------------|
B-----------------------------------------|
G-----------------------------------------|
D-----------------------------------------|
A---------------------------------------4-|
E-222-2~3-2-2~4-2-2~3-2-2~4-2-2~3-2-2~4-2-|

e-----------------------------------------|
B-----------------------------------------|
G-----------------------------------------|
D-----------------------------------------|
A---------------------------------7-7-7-7-|
E-222-2~3-2-2~4-2-2~3-2-2~4-2-2~3-5-5-5-5-|

Fig.4  x8
e-----------------------|
B-----------------------|
G-----------------------|
D---------9-8-------4-7-|
A-2--2-2--7-6-2-2-2-2-5-|
E-0--0-0------0-0-0-----|
  Trapped in purgatory
  A lifeless object alive
  Awaiting reprisal
  Death will be their acquisition
  The sky is turning red
  Return to power drawns near
  Fall into me, the sky's crimson tears
  Abolish the rules made of stone

 Fig.5 x2
e-------------------------------------------|
B-------------------------------------------|
G-------------------3-2---------------------|
D----2-5-2-3----2-5------66666666666666-----|
A-2----------2--------------------------7-7-|
E-0----------0--------------------------5-5-|

 Fig.6 x2
e-------------------------------------------|
B-------------------------------------------|
G-------------------3-2---------------------|
D----2-5-2-3----2-5------66666666666666-----|
A-2----------2--------------------------7-7-|
E-0----------0--------------------------5-5-|
  Pierced from below, souls of my treacherous past
  Betrayed by many, now ornaments dripping above

 Fig.7 obie gitary x2
e-----------------------------|
B-----------------------------|
G---------3-4-3----3-2----2-1-|
D--------2-------4------3-----|
A--2-2-2----------------------|
E--0-0-0----------------------|

 I gitara (2x)                       II gitara (2x)
e-----------------------------| e-----------------------------|
B-----------------------------| B---------4-5-4----4-3----3-2-|
G---------3-4-3----3-2----2-1-| G----------------4------3-----|
D--------2-------4------3-----| D-----------------------------|
A--2-2-2----------------------| A--2-2-2----------------------|
E--0-0-0----------------------| E--0-0-0----------------------|
  Awaiting the hour of reprisal
  Your time slips

 Fig.8 obie gitary x2
e------------------------------------------|
B------------------------------------------|
G------------------------------------------|
D------------------------------------------|
A--2-2--2-2--2-2--2-2--2-2--2-2--2-2--2-2--|
E--0-0--0-0--0-0--0-0--0-0--0-0--0-0--0-0--|

 I gitara gra Fig.8 x2
 a II gitara gra Fig.9 x4:
e-----------------------------------|
B-----------------------------------|
G-----------------------------------|
D--------5m-9----5m-8----5m-7---5/4-|
A--7m-7m------7m------7m-----7------|
E-----------------------------------|
 Obie gitary Fig.9 x2

 Fig.10 x4
e----------------------------------------|
B----------------------------------------|
G----------------------------------------|
D----------------------------------------|
A--------5/9-------5/8----------7----5/4-|
E--0m-0m-3/7-0m-0m-3/6-0m-0m-0m-5-0m-3/2-|

  Raining blood
  From a lacerated sky
  Bleeding its horror
  Creating my structure now I shall reign in blood!

 Fig.11
e------------------------------|------------------------------|
B------------------------------|------------------------------|
G------------------------------|------------------------------|
D------------------------------|------------------------------|
A---------222222-111111--------|---------222222-111111--------|
E--000000---------------333333-|--000000---------------333333-|

e------------------------------|------------------------------|
B------------------------------|------------------------------|
G------------------------------|------------------------------|
D------------------------------|------------------------------|
A---------222222-111111--------|---------222222-111111--------|
E--000000---------------333333-|--000000---------------333333-|

e----------------------------------------------|
B----------------------------------------------|
G----------------------------------------------|
D----------------------------------------------|
A---------333333-222222--------333333-22222-33-|
E--444444---------------444444-----------------|

e------------------------------|------------------------------|
B------------------------------|------------------------------|
G------------------------------|------------------------------|
D------------------------------|------------------------------|
A---------222222-111111--------|---------222222-111111--------|
E--000000---------------333333-|--000000---------------333333-|

 teraz tremola w ruch i na koniec jeszcze ten akordzik:


e------|
B------|
G------|
D------|
A--4---|
E--2---|
Comments