Vader - Reborn In Flames Chords & Tabs

 

Reborn In Flames Chords & Tabs

Vader Chords & Tabs

Version: 1 Type: Tab 0 ratings
1 star 2 stars 3 stars 4 stars 5 stars
comments

Reborn In Flames Tab

Band: Vader
Album: De Profundis
Song: Reborn in Flames
by vaderfan
*** ORIGINALLY BY "CARNAL" ***


x6 (obie gitary)
e-----------------------|
B-----------------------|
G-----------------------|
D-----------------------|
A-----------------------|
E--111111-33-44-000000--|

I gitara:
e-----------|----------|----------------|----------|----------|----------|
B-----------|----------|----------------|----------|----------|----------|
G-----------|----------|----------------|----------|----------|----------|
D--2--------|-5-3------|----------------|-2--------|-5--------|----------|
A--0--------|-3-1------|-3-2--2m2m-2m2m-|-0--------|-3-3------|-3-2------|
E-----------|----------|-1-0--0m0m-0m0m-|----------|---1-4-3--|-1-0------|

II gitara:
e-----------|----------|----------------|----------|----------|----------|
B-----------|----------|----------------|----------|----------|----------|
G-----------|----------|----------------|----------|----------|----------|
D-----------|----------|----------------|----------|----------|----------|
A--00000000-|-11111111-|----------------|-00000000-|----------|----------|
E-----------|----------|-00000000000000-|----------|-11111111-|-00000000-|
Fig1.

e--------------|
B--------------|
G--------------|
D--9-7-10-9/10-|
A--7-5-8--7/8--|
E-----0--------|

Fig2.

e-----------------------------------|--------------------------------|
B-----------------------------------|--------------------------------|
G-----------------------------------|--------------------------------|
D-----------------------------------|--------------------------------|
A--00000000-33-11111111-------------|--00000000-33-------------------|
E-----------------------11-00000000-|--------------1111-4-3-1-000000-|
Repeat Fig1.

e-----------------------------------|---------------------|
B-----------------------------------|---------------------|
D-----------------------------------|---------------------|
G-----------------------------------|---------------------|
A--00000000-33-11111111-------------|--00000000-33--------|
E-----------------------11-00000000-|--------------1111-0-|
   Come on Tokyo!

II gitara                                I gitara:
e-------------------------------------|  e---------------------------|
B-------------------------------------|  B---------------------------|
D-------------------------------------|  D---------------------------|
G--4-5-7-3-2m/5m/4----5----7----5-----|  G--4-5-7-3-2m/5m/4----------|
A--2-3-5-1-0m/3m/2----3----5----3-----|  A--2-3-5-1-0m/3m/2----------|
E-----------------0000-0000-0000-0000-|  E---------------------------|

Obie gitary:
e-----------------------|--------------------------|-----------------------|---------------------------|
B-----------------------|--------------------------|-----------------------|---------------------------|
D-----------------------|--------------------------|-----------------------|---------------------------|
G--4----5----7----5-----|--4----5----7----3--2m/5m-|--4----5----7----5-----|--4----5----7----3/2/4-----|
A--2----3----5----3-----|--2----3----5----1--0m/3m-|--2----3----5----3-----|--2----3----5----1/0/2-2-2-|
E---0000-0000-0000-0000-|---0000-0000-0000-00------|---0000-0000-0000-0000-|---0000-0000-0000------0-0-|
Fig.3
e--------------------------------------|----------------------------|
B--------------------------------------|----------------------------|
D--------------------------------------|----------------------------|
G--------------------------------------|----------------------------|
A---3~4-----3~4-----3~4--------4-2~4-0-|---3~4-----3~4-----3~4--5-2-|
E--2---2-3-2---2-3-2---2-3-2m2m-2------|--2---2-3-2---2-3-2---2-3-0-|

Fig.4
e---------------------------------|------------------------------|--------------------------------|
B---------------------------------|------------------------------|--------------------------------|
D---------------------------------|------------------------------|--------------------------------|
G---------------------------------|-------------------------5----|--------------------------------|
A---3~4-----3~4-----3~4-----------|---3~4-----3~4-----3~4-2-3-5--|---3~4-----3~4-----3~4----------|
E--2---2-3-2---2-3-2---2-3-0-2~3--|--2---2-3-2---2-3-2----0---3--|--2---2-3-2---2-3-2---2-3-0-2~3-|
 Comes the time of fear and pain   The earth covered by ashes and   Freezing winds freezing it all
 The human race is bleeding away!  flesh Dying in terrible decay    What fire hasn't burnt

e---------------------------------|
B---------------------------------|
D---------------------------------|
G----------------7-6-5-4----------|
A---3~4-----3~4--5-4-3-2----------|
E--2---2-3-2---22-----------------|
 Blackened blood flooding the
 graves Messiah will never return!

I gitara:
e---------------------------------------|--------------------------------------|
B---------------------------------------|--------------------------------------|
D---------------------------------------|--------------------------------------|
G----------------------------------4/5--|-----------------5/4--------------5/4-|
A---------------2~3----------------2/3--|-----------------3/2----5--55--55-3/2-|
E--2-------2-------2222222222222222-----|------------------------3--33--33-----|
                   Unholy words of the    The dead rise
                   ancient prophesy       from hell...
                   Now comes true
II gitara:
e---------------------------------------|--------------------------------------|
B---------------------------------------|--------------------------------------|
D---------------------------------------|--------------------------------------|
G----------------------------------4/5--|--------------------------------------|
A---2~3-2~3-2~3-2~3----------------2/3--|--------------------------------------|
E--2---2---2---2---2222222222222222-----|-222232222322223222223333333333333333-|
[ Tab from: http://www.guitartabs.cc/tabs/v/vader/reborn_in_flames_tab.html ]
Obie gitary:
e----------------------------------------------------------------------|
B----------------------------------------------------------------------|
D----------------------------------------------------------------------|
G----------------------------------------------------------------2-5/3-|
A---------------3^-------------3/2-------------3^-------------3^-0-3/1-|
E--2222322322322--2222322322322---2222322322322--2222322322322---------|

 Fig.5
e----------------------------------------------------------------------|
B----------------------------------------------------------------------|
D----------------------------------------------------------------------|
G---------------------------------------------------------------5m/4m--|
A---------------3^-------------3/2-------------3^---------2m/3m/3m/2m--|
E--2222322322322--2222322322322---2222322322322--22223223-0m/1m--------|
 Toxic storms attack from the sky Spreading the light of deadly pleasure
 Nuclear mutants buried alive In blasting dusts of dying world

 Fig 6.
e---------------------------------------------------------------------|
B---------------------------------------------------------------------|
D---------------------------------------------------------------------|
G---------------------------------------------------------------------|
A---------------3^-------------3/2-------------3^---------------------|
E--2222322322322--2222322322322---2222322322322--2222322322222222222--|
 Atomic falls putrefy human brains The living dead creep in bloody bog
 The lord of hate was awaken by death Before you die, can see the end!


Fig 7.
e----------------------------------------------------------------------|
B----------------------------------------------------------------------|
D----------------------------------------------------------------------|
G----------------------------------------------------------------------|
A--000032222---------000032222---------000032222---------000032222-----|
E-----------322222222---------322222222---------322222222---------1111-|
 All will burn in his breath His eyes paralyse every life
 The demons wheel above his head Like vultures seeking the flesh

 I gitara:
e------------------------------|-----------------------------|
B------------------------------|-----------------------------|
D------------------------------|-----------------------------|
G----------------5-5m5m-5-5m5m-|---------------5-5m5m-5-5m5m-|
A--2-2m2m-2-2m2m-3-3m3m-3-3m3m-|-2-2m2m-2-2m2m-3-3m3m-3-3m3m-|
E--0-0m0m-0-0m0m---------------|-0-0m0m-0-0m0m---------------|

 II gitara:
e------------------------------|-----------------------------|
B------------------------------|-----------------------------|
D------------------------------|-----------------------------|
G------------------------------|---------------5-5m5m-5-5m5m-|
A------------------------------|-2-2m2m-2-2m2m-3-3m3m-3-3m3m-|
E------------------------------|-0-0m0m-0-0m0m---------------|

 Obie gitary 4x:
e------------------------------|
B------------------------------|
D----------------5-5m5m-5-5m5m-|
G----------------3-3m3m-3-3m3m-|
A--2-2m2m-2-2m2m---------------|
E--0-0m0m-0-0m0m---------------|
  Come on!!!

 Fig.5 i Fig.6 (pod solo)


e----------------------------------------------------------------------|
B----------------------------------------------------------------------|
D----------------------------------------------------------------------|
G----------------------------------------------------------------------|
A--000032222---------000032222---------000032222---------000032222-----|
E-----------322222222---------322222222---------322222222---------1111-|
 All will burn in his breath His eyes paralyse every life
 All demons transformed into grubs To make the globe stinking

 I gitara:
e-----------------------------------------------------|
B-----------------------------------------------------|
D-----------------------------------------------------|
G-------------------------------------10-7-9----------|
A-------------------------------------8--5-7----------|
E------------------(0000000000000000)m----------------|
   Rot!!!
 II gitara:
e------------------------------------------------------|
B------------------------------------------------------|
D------------------------------------------------------|
G------------------------------------------------------|
A------------------------------------------------------|
E--(000000000000000000000000000000000000000000000000)m-|

 Obie gitary:
e----------------------------------------------------|
B----------------------------------------------------|
D----------------------------------------------------|
G--5-4-----------------------------------------------|
A--3-2-3-2-------------------------------------------|
E------1-0--00000-00001000000-00001000000-0000100----|
            Born to destroy the holy ghost to the end
            Now finished wars of God
            His name is the Exterminator
            Covering the earth with vaporous rot
            The real messiah reborn in the flames
            Creator was the hell
            He's killer of the world of the living
            The dead worship his majesty


e-------------------|
B-------------------|
D-------------------|
G--5-4------5-4-----|
A--3-2-3-2--3-2-4-5-|
E------1-0------2-3-|


(solo)
 Podkład pod solo
e-------------|--------------|-----------------|--------------|
B-------------|--------------|-----------------|--------------|
D-------------|--------------|-----------------|--------------|
G-------------|--------------|-----------------|-5m-4m--------|
A--5----------|--------------|-4-5-------------|-3m-2m-2m-3---|
E--3----3-----|-(000000000)m-|-2-3--3-3--3-3-6-|-------0m-1---|


 Obie gitary:
e---------------|----------------------|-----------|-------------|-------------|
B---------------|----------------------|-----------|-------------|-------------|
D---------------|----------------------|-----------|-------------|-------------|
G---------------|----------------------|-----------|-------------|-------------|
A-6m-5m-3-2-----|-(6-5)2git.--3m-2-----|-3-3-2-----|-6-5-3m-5m-2-|-3-3--2------|
E-4m-3m-1-0-----|-(4-3)2git.--1m-0-----|-1-1-0-----|-4-3-1m-3m-0-|-1-1--0------|
                                                                    (let ring)
Comments