Vader - Flag Of Hate Chords & Tabs

 

Flag Of Hate Chords & Tabs

Vader Chords & Tabs

Version: 1 Type: Tab 0 ratings
1 star 2 stars 3 stars 4 stars 5 stars
comments

Flag Of Hate Tab

Band: Vader
Album: Future of the Past
Song: Flag of Hate
by vaderfan
*** ORIGINALLY BY "Jori Merilainen"


tuned down to D

1) Main riff:
G|--3--------3--------3--------5--6--4--|
D|--3--------3--------3--------5--6--4--|
A|----000000---000000---000000----------|
E|----......---......---......----------|

2) Verse riff:
G|---------------------------------------------------------------|
D|--------------------------8-8-8-------------------------5-5-5--|
A|--5555555555555555555555556-6-6-5555555555555555555555553-3-3--|
E|--........................------........................-------|

3) Pre-chorus:
G|---------------------------------------------------------------|
D|--------------10--------------7--------------10------5------7--|
A|--777777777777-8--7777777777775--777777777777-8--33333--55555--|
E|--...........-----............---............----....---....---|
[ Tab from: http://www.guitartabs.cc/tabs/v/vader/flag_of_hate_tab.html ]
4a) Chorus:
G|-------------------------------------------------------------------|
D|--4-------------5-4-------------5-4-------------5-4----------------|
A|--2-2222222222223-2-2222222222223-2-2222222222223-2-2222222222225--|
E|----............----............----............----............3--|
4b)
G|----------------------------------------------------------------*--|
D|----------------------------------------------------------------2--|
A|--4-------------5-4-------------5-4-------------5-4-------------0--|
E|--2-2222222222223-2-2222222222223-2-2222222222223-2-222222222222---|
     ............    ............    ............    ............
*for the last time don't play this

5a) Post-chorus:
G|-------------------------------------|
D|-------------------------------*-----|
A|--0000800070008000700080007000-10-9--|
E|--------------------------------8-7--|
*last time replace this with the following...
5b) Fill:
This is added to the new version of the song,
and doesn't exist on the Endless Pain album.
G|-----------------|
D|-----------------|
A|--10-9-7---10-9--|
E|---8-7-5----8-7--|

6) Fill before solo:
G|-----------------------|
D|--9---7---5------------|
A|--7---5---3---5--4--2--|
E|--------------3--2--0--|

END.
Comments