Vader - Fear Of Napalm Chords & Tabs

 

Fear Of Napalm Chords & Tabs

Vader Chords & Tabs

Version: 1 Type: Tab 0 ratings
1 star 2 stars 3 stars 4 stars 5 stars
comments

Fear Of Napalm Tab

   
and: Vader
Album: De Profundis
Song: Fear of Napalm
by vaderfan
*** ORIGINALLY BY "DimeBolt" ***

Tune down one step (D,G,C,F,A,D)

1||-----------------|-----------------||-----------------|-----------------|
2||-----------------|-----------------||-----------------|-----------------|
3||-----------------|-----------------||-----------------|-----------------|
4||-----------------|-----------------||---------------5-|---------------4-|
5||-2-2-2-3-2-2-2-5-|-2-2-2-3-7-8-7-8-||-2---2-2-5-3-5-3-|-2---2-2-5-3-5-2-|
6||-0-0-0-1-0-0-0-3-|-0-0-0-1-5-6-5-6-||-0---0-0-3-1-3---|-0---0-0-3-1-3---|
[ Tab from: http://www.guitartabs.cc/tabs/v/vader/fear_of_napalm_tab.html ]
                                                Fast
1||-----------------|-------------------------||------------------|-----------------||
2||-----------------|-------------------------||------------------|-----------------||
3||-----------------|-------------------------||------------------|-----------------||
4||---------------5-|-------------------------||------------------|-----------------||
5||-2---2-2-5-3-5-3-|-2---2-2-8-5-5-7-7-3-3---||-4\3-----4\3------|-4\3-----4/5-4/5-||
6||-0---0-0-3-1-3---|-0---0-0-6-3-3-5-5-1-1---||-2\1-00002\1-0000-|-2\1-00002/3-2/3-||

                                          Slower
1||------------------|------------------||---------------------------------||
2||------------------|------------------||---------------------------------||
3||------------------|------------------||---------------------------------||
4||------------------|------------------||---------------------------------||
5||---------33334444-|------------------||-2---2---------------------------||
6||-22222222---------|-3333333355556666-||-0---0---0h2h3-0h3h4h5-0h1h2h3-0-||


1||-----------------|-----------------||------------------|------------------||
2||-----------------|-----------------||------------------|------------------||
3||-----------------|-----------------||------------------|------------------||
4||-4---------------|-5---------------||------------------|------------------||
5||-2-----5-4-----5-|-3-----6-5-----4-||-222222-----------|-333333-----------||
6||-------3-2-----3-|-------4-3-----2-||-------3322222233-|-------4433333322-||
Comments