V Shape Mind - Dangle Chords & Tabs

 

Dangle Chords & Tabs

V Shape Mind Chords & Tabs

Version: 1 Type: Bass Tab

Dangle Bass Tab

   
Intro/Verse

C|-----------|
A|-----------| {x8}
G|-----------|
D|-0-1-3-1-0-|


Chorus
[ Tab from: http://www.guitartabs.cc/tabs/v/v_shape_mind/dangle_btab.html ]
C|------------------------------------------------------|
A|------------------------------------------------------| {x3}
G|--------------3-3-3-3-3-3-5-5-5-5-5-5-3-3-3-3-3h5p3---|
D|--5-5-5-5-5-5---------------------------------------5-|

C|----------------------------------------------------|
A|----------------------------------------------------|
G|--------------3-3-3-3-3-3-5-5-5-5-3-3-3-3-0-1-3-1-0-|
D|--5-5-5-5-5-5---------------------------------------|

listen carefully very easy...
anything wrong with it drgdxxxxlzr@yahoo.com
-null-