Usmc - Marine Hymn Chords & Tabs

 

Marine Hymn Chords & Tabs

Usmc Chords & Tabs

Version: 1 Type: Tab 0 ratings
1 star 2 stars 3 stars 4 stars 5 stars
comments

Marine Hymn Tab

I read the USMC Hymn tabs here, and realized they were all wrong,
so I decided to set the record straight.  I guess it takes a Sailor to
do a Marine's job, eh?  ;)  Timing's not precise, but I assume if 
you're reading this, you already know how the hymn goes.




E---------------------------------------------
B--------------------5------------------------
G------1-4-4-4-4-4----4---1-2-4-4--2----------
D----2------------------------------4---2-----
A---------------------------------------------
E---------------------------------------------

    From      te-zu   ma, to   of tri	li.

[ Tab from: http://www.guitartabs.cc/tabs/u/usmc/marine_hymn_tab.html ]
E---------------------------------------------
B--------------------5------------------------
G------1-4-4-4-4-4----4---1-2-4-4--2----------
D----2------------------------------4---2-----
A---------------------------------------------
E---------------------------------------------

    We          ba  attles  land       sea.

E---------------------------------------------
B----5-4-2-----2--5-----2---5-4-2-----2--5----
G-----------2--------4---4---------2--------4-
D---------------------------------------------
A---------------------------------------------
E---------------------------------------------
    First  for   and   -dom   to     our   clean


E---------------------------------------------
B--------------------5------------------------
G------1-4-4-4-4-4----4---1-2-4-4--2----------
D----2------------------------------4---2-----
A---------------------------------------------
E---------------------------------------------
    we    to     ti- of  the       marine.

Just Rinse and repeat for the rest of the verses!
Comments