Usher David - Alone In The Universe Chords & Tabs

 

Alone In The Universe Chords & Tabs

Usher David Chords & Tabs

Version: 1 Type: Tab 0 ratings
1 star 2 stars 3 stars 4 stars 5 stars
comments

Alone In The Universe Tab

   
Song: Alone in the Universe
Artist: David Usher
Tabbed by: conart_cry@yahoo.com

I think the effect is the Leslie rotating speakers
clean Rythm Fig 1
the /\ are hammer and pick-offs
   C             Am             F            G
E|--------------------------------------------------------------
B|-1-1/3\1/3\1---1--1/3\1/3\1---1-1/3\1/3\1--0-0\1/0\1/0--------
G|-0-------------2--------------2------------0------------------
D|-2-------------2--------------3------------0------------------
A|-3-------------0--------------3------------2------------------
E|-------------------------------------------3------------------

With Rythm Fig 1 go with Verses
Janie's on the bathroom floor, she don't know why
She's shaking underneath the sink, can't feel a thing
She'd love to live her life, she's too afraid of failure
With all the voices in her head, and what was that I thought I heard you scream?

Chorus: with Distortion
F
I know you can feel it
C
You're already there
F
Asleep underwater
C
Just screaming for air
Am
I know you can feel it
C
You're already
D (Don't strum let sustain)
Don't you know we're freaks and creatures
Wake up I can see the light
[ Tab from: http://www.guitartabs.cc/tabs/u/usher_david/alone_in_the_universe_tab.html ]
Pre-Chorus(??): Clean
C
I think we're alone here
Am
You and I
F
I think we're alone left
G
Wondering why
C                   Am
I think we're alone You and I
F
I think we're alone
D (Stop)
In the universe tonight

Back to Rythm Fig 1
Verse2:
Alex's on the last train home, from God knows where
A million miles around from where he'd thought he'd be
He's got his suit, his tie, His drink, his MTV
He's draining all his life away you can't escape we're all infected now

Chorus with the exception of the end part
D (Keep strumming)
Don't you know we're freaks and creatures
Wake up I can almost see the light

Pre-chorus

guitar solo: Do verse chords with distortion no rotation speakers
With wah-wah

The bends vary on the () they could be Full and 1/4 bends
E|----------------------------------------------------------
B|--(5)-(5)--5-8-5-----5-------(5)-(5)--5--8--5-----5-------
G|------------------7----7--5--------------------7-----7--5-
D|----------------------------------------------------------
A|----------------------------------------------------------
E|----------------------------------------------------------
                    FULL--------1. |                      2.
E|---------------------------------|------------------------
B|-(5)-------------(8)--8--5---5-6-|--(8)---8-----5---------
G|------7--5--5--7-----------7-----|------------------------
D|---------------------------------|------------------------
A|---------------------------------|------------------------
E|---------------------------------|------------------------

Back to Chorus and prechorus then end
Comments