Usher - You Make Me Wanna Riff Chords & Tabs

 

You Make Me Wanna Riff Chords & Tabs

Usher Chords & Tabs

Version: 1 Type: Tab 0 ratings
1 star 2 stars 3 stars 4 stars 5 stars
comments

You Make Me Wanna Riff Tab

   
#----------------------------------PLEASE NOTE--------------------------------#
#This file is the author's own work and represents their interpretation of the#
#song. You may only use this file for private study, scholarship, or research.#
#-----------------------------------------------------------------------------#

Date: Tue, 26 May 1998 11:10:11 -0500
From: b parkin 
Subject: u/usher/you_make_me_wanna.tab

Song Name: You Make Me Wanna
Artist: Usher
Tabbed by: Raleigh Murch (RaleighTN@aol.com)

Standard Tuning (Spacing is fairly accurate to timing)

| | --------------------------------------------------------------- | |
| | --------------------------------------------------------------- | |
| | ---8----------8----------5-5----4-4---------------------------- | |
| | ----------0-6-------------------------------------------------- | |
| | -----------------6--------------------------------------------  | |
| | --------------------------------------------------------------- | |
        (This part is played during Verses 1,2 and during chorus)

*That's all there is.. its pretty simple! Let me know if anyone gets the 
rest of it or come up any other R&B tabs (e-mail above).


********************************************************************************************************

********************************************************************************************************



Usher- "you make me wanna"

tabbed by dan foley



this sounds pretty close to me. i dont have the cd so im doing this from
memory.

may be in the wrong key though.

[ Tab from: http://www.guitartabs.cc/tabs/u/usher/you_make_me_wanna_riff_tab.html ]
      Cm            G#                      G
e----------------------------------------------------||-
b---4------------4----------4---4-----4-----3--------||-
g---5------------5----------5---5h7h5-----4----------||-
d--------5h6-----------6--------------6-----5--------||-
a---3------------------------------------------------||-
e----------------------------------------------------||-


********************************************************************************************************

********************************************************************************************************


Date: Tue, 10 Mar 1998 13:43:23 -0500
From: George Salov 
Subject: u/usher/you_make_me_wanna.crd


"You make me wanna" by Usher
Tabbed by Ivo Salov (george.salov@followme.com)


My comment: This is the correct version of the song.
This also is my first tab so send me your comments.
Positive and negative. Thank you.


Standard tuning ( Acoustic guitar )

E 3------32----2-2--------------------------------||-
B 5---013--0---3-3--------------------------------||-
G ------------------------------------------------||-
D ------------------2-2---------------------------||-
A ------------------3-3---------------------------||-
E ------------------------------------------------||-


********************************************************************************************************

********************************************************************************************************


This is Usher's song with Lil Jon and Ludacris YEAHHH!
That's all it does for the whole song, have fun playing it.
From the one and only Cesar "Hendrix" Davila.



-------10------11------11-----10---------||-
--8--------8--------8------8-------------||-
-----------------------------------------||-
-----------------------------------------||-
-----------------------------------------||-
-----------------------------------------||-

 
[Usher:]
A Town's Down! 

[Lil' Jon:]
Yeah, Ok! Lil' Jon! 

[Usher:]
Yeah, Yeah Yeah, Yeah yeah, Yeaah 
Yeah, Yeah yeah, Yeah yeah, Yeaah 



Comments