Usher - Let It Burn Chords & Tabs

 

Let It Burn Chords & Tabs

Usher Chords & Tabs

Version: 1 Type: Tab 0 ratings
1 star 2 stars 3 stars 4 stars 5 stars
comments

Let It Burn Tab

   
Let it burn
Usher

Tab by Joe bramanti

This isn't much of a tab but these are the sweet chords of the song, 
i learned it on piano first ,if you have one play around with this!

                       F     C#     F    C#    C
                       C#    G#     C#   G#   F#
left hand              G#    F      G#   F#   D#
[ Tab from: http://www.guitartabs.cc/tabs/u/usher/let_it_burn_tab.html ]
right hand             C#    A#     F#   D#  G#
                       G#           C#      
                       C#    A#     F#   D#   G#
PLAY AROUND WITH THESE CHORDS AND IMPROV ON THE LYIRCS IN THE SAPRANO LINE,
ARRPEG THE CHORDS ON PIANO AND REALLY NAIL IT.

                                                               
E||--4----------------|-------------------|-------------------|
B||--6----------------|--6----------------|--2----------------|
G||--6----------------|--6----------------|--1----------------|
D||--6----------------|--6----------------|--4----------------|
A||--4----------------|-------------------|-------------------|
E||-------------------|--6----------------|--2----------------|


                            
--4-----------------------||
--6-----------------------||
--6--------5--------------||
--4/-------4--------------||
--6--------6/-------------||
-----------4--------------||


HOPE THIS HELPS SOMEONE
EMAIL ME WITH ANY QUES
JOKER57@CMAACCESS.COM
Comments