Usher - Caught Up Chords & Tabs

 

Caught Up Chords & Tabs

Usher Chords & Tabs

Version: 1 Type: Bass Tab

Caught Up Bass Tab

Intro

G|----------------------10-10-11-11-10---8---7--|
D|------------------8-8----------------8---8----|
A|--1-1-2-1-5----6------------------------------|
E|-------------6--------------------------------|

Verse

G|--------------------------------------------|
D|--------------------------------------------|
A|--1-1-----2-2------1-1----1-1-------0--1-1--|
E|-----------------1---------------2----------|
[ Tab from: http://www.guitartabs.cc/tabs/u/usher/caught_up_btab.html ]
Pre-chorus

"Until I met this girl................"

G|----------------------------------------------|
D|------4-4-4x--4-------------------------------|
A|----6-------6---6\-----------1~----------1----|
E|--7------------------------------------1------|

Chorus

G|---------------------------------------|
D|---------------------------------------|
A|--2---------1--2p1-------0-1~------1---|
E|------0--2-------------2---------1-----|