Useless Id - Note Chords & Tabs

 

Note Chords & Tabs

Useless Id Chords & Tabs

Version: 1 Type: Tab 0 ratings
1 star 2 stars 3 stars 4 stars 5 stars
comments

Note Tab

-------------------------------------------------------------------------------
			   NOTE - Useless ID
--------------------------------------------------------------------------------


Intro
e|---------------------------------------------|
B|---------------------------------------------|
G|---------------------------------44444--22---|
D|---------------------------------44444--22---|
A|-------0000-2222------4444-0000--22224--00---|
E|--0000-----------4444------------------------|

Verse
e|------------------------------------|
B|------------------------------------|
G|-------2----4---------6----2----4---|
D|--2----2----4----6----6----2----4---|
A|--2----0----2----6----4----0----2---|
E|--0--------------4------------------|
[ Tab from: http://www.guitartabs.cc/tabs/u/useless_id/note_tab.html ]
Chorus
e|--------------------------------------------------------|
B|--------------------------------------------------------|
G|--6------4------2----------5---6------4------2------4---|
D|--6------4------2------2---5---6------4------2------4---|
A|--4------2------0------2---3---4------2------0------2---|
E|-----------------------0--------------------------------|

Bridge
e|--------------------------|   |-----------|
B|--------------------------|   |-----------|
G|--2-------------6------4--|   |---------2-|
D|--2------2------6------4--|x2 |---------2-|
A|--0------2------4------2--|   |-000000000-|
E|---------0----------------|   |-----------|

Guitar Solo
e|--------------(7--5--4--2)--|--4-2-4-2...--|--------------|
B|--5-4-5-4...----------------|--------------|--5-4-5-4...--|
G|----------------------------|--------------|--------------|
D|----------------------------|--------------|--------------|
A|----------------------------|--------------|--------------|
E|----------------[*play Verse as rhythm guitar]------------|

Ending
e|--------------------------------|
B|--------------------------------|
G|-------2----4-----------4--2----|
D|-2-----2----4----6--6---4--2----|
A|-2-----0----2----6--6---2--0----|
E|-0---------------4--4-----------|

[order]
Intro x1
Verse x3
Chorus x2
Verse x2
Chorus x2
Bridge x1
Gt.Solo
Ending
===============================================================================


Comments