Useless Id - Crush Chords & Tabs

 

Crush Chords & Tabs

Useless Id Chords & Tabs

Version: 1 Type: Bass Tab 0 ratings
1 star 2 stars 3 stars 4 stars 5 stars
comments

Crush Bass Tab

Useless ID - Crush
Only the solo, that's my favorite part :)

G---------------------------------1-----
D-------6-6------4-4----2-2--0-2-2----1-
A-4--4---4--2--2--2-0--0-0--0------3-3--
E---------------------------------------

G---------------------------------1-----
D-------6-6------4-4----2-2--0-2-2------
A-4--4---4--2--2--2-0--0-0--0------3----
E---------------------------------------

X2
[ Tab from: http://www.guitartabs.cc/tabs/u/useless_id/crush_btab.html ]
-----------------------------------------------------------------------------


G---------------------------------1-----
D-------6-6------4-4----2-2--0-2-2----1-
A-4--4---4--2--2--2-0--0-0--0------3-3--
E---------------------------------------

G---------------------------------------
D-------6-6-----------------------------
A-4--4---4--2--2--2-2--4-0--------------
E---------------------------------------

  

enjoy..

from Useless ID - No Vacation From The World (2003) (Album)
Comments