Useless Id - At The Stadium Chords & Tabs

 

At The Stadium Chords & Tabs

Useless Id Chords & Tabs

Version: 2 Type: Tab 0 ratings
1 star 2 stars 3 stars 4 stars 5 stars
comments

At The Stadium Tab

-------------------------------------------------------------------------------
			     AT THE STADIUM - Useless ID
--------------------------------------------------------------------------------

(I'm not sure about this tab,
 so please e-mail me if you get better one.)

e|---------------------------------------------------|   |-----|
B|---------------------------------------------------|   |-----|
G|---------------7-------------------------7-----9---|   |-----|
D|-7---6---4-----7---7---2-----4-----7-----7-----9---|x2 |--7--|
A|-7---6---4-----5---7---2-----4-----7-----5-----7---|   |--7--|
E|-5---4---2---------5---0-----2-----5---------------|   |--5--|
[ Tab from: http://www.guitartabs.cc/tabs/u/useless_id/at_the_stadium_tab_ver_2.html ]
e|---------------------------------------------------------------|
B|---------------------------------------------------------------|
G|-9---7---9---6-------7---9---------6---7-------6-------7---9---|
D|-9---7---9---6---4---7---9-7-6-4---6---7---7---6---4---7---9---|
A|-7---5---7---4---4---5---7-7-6-4---4---5---7---4---4---5---7---|
E|-----------------2---------5-4-2-----------5-------2-----------|

e|------------------|
B|------------------|
G|-------------9----|
D|-7-7-7-7-7-7-9-7--|
A|-7-7-7-7-7-7-7-7--|
E|-5-5-5-5-5-5---5--|

e|-----------------------------------------------------|
B|-----------------------------------------------------|
G|---------------7-------------------------7---9-------|
D|-7---6---4-----7---7---2-----4-----7-----7---9---7---|
A|-7---6---4-----5---7---2-----4-----7-----5---7---7---|
E|-5---4---2---------5---0-----2-----5-------------5---|

===============================================================================
Comments