Used - Zero Mechanism Chords & Tabs

 

Zero Mechanism Chords & Tabs

Used Chords & Tabs

Version: 1 Type: Bass Tab 0 ratings
1 star 2 stars 3 stars 4 stars 5 stars
comments

Zero Mechanism Bass Tab

Standard Tuning

Intro:
G ------------------------------|
D ------------------------------|
A ------000000--------555555----|
E 222222-------000000-----------|   x3

Then:
G ---------------------|
D ---------------------|
A -----00-00-----55-55-|
E 22-22-----00-00------|  z1

Verse:
G --------------------------------|
D --------------------------------|
A --------0-0000---------5-5555---|
E 2-2222---------0-0000-----------|  x8

G --------------------------|
D --------------------------|
A 4-44446-6666-7-7777976----|
E --------------------------|   x2
[ Tab from: http://www.guitartabs.cc/tabs/u/used/zero_mechanism_btab.html ]
G ---------|
D ---------|
A 44-4-----|
E ----00-0-|

Verse x4
G -----------------|
D --------9~-------|
A 5~5557~----5~5---|
E ---------------7-|

G ------------|
D ------------|
A 5~5---------|
E ----5~5s7---|  x2

Bridge
G ---------------------|
D ---------------------|
A --000------55555-----|
E 2~----2~-2--------2~-|

G -----------|
D -----------|
A -----------|
E 2~~~~2~~~~

Intro x 3

Outro:
G -------------------------------------|
D -------------------------------------|
A -------2-2222------------------------|
E 2-2222--------000-0-000-0-000-0-000--|
Comments