Used - Yesterdays Feelings Chords & Tabs

 

Yesterdays Feelings Chords & Tabs

Used Chords & Tabs

Version: 1 Type: Tab 0 ratings
1 star 2 stars 3 stars 4 stars 5 stars
comments

Yesterdays Feelings Tab

Tabbed By Trevy Lott

[ Tab from: http://www.guitartabs.cc/tabs/u/used/yesterdays_feelings_tab.html ]
e-------------------------------------------------------|
B---7---7---5---7---7---7----7---5---7---7---7--7--5/3--|
G-------------------------------------------------------|
D---0---0---0---0---0---0----0---0---0---0---0--0-------|
A-------------------------------------------------------|
E-------------------------------------------------------|

e-------------------------------------------------------|
B---7---7---5---7---7---7----7---5---7---7---7--5-------|
G-------------------------------------------------------|
D---0---0---0---0---0---0----0---0---0---0---0--0-------|
A-------------------------------------------------------|
E-------------------------------------------------------|
Comments