Used - The Taste Of Ink Chords & Tabs

 

The Taste Of Ink Chords & Tabs

Used Chords & Tabs

Version: 9 Type: Tab 0 ratings
1 star 2 stars 3 stars 4 stars 5 stars
comments

The Taste Of Ink Tab

   
tabber: mike angelini
band: the used
song: the taste of ink
album: the used
tuning: drop d (Dadgbe)

intro: played clean x 2 palm muted

e----------------------------------------------------------------------------|
b----------------------------------------------------------------------------|
g----------------------------------------------------------------------------|
d----9-9-9-9-12-12-12-12-7-7-7-7-14-14-14-14---------------------------------|
a----7-7-7-7-10-10-10-10-5-5-5-5-12-12-12-12---------------------------------|
D----7-7-7-7-10-10-10-10-5-5-5-5-12-12-12-12---------------------------------|

verse: played distorted x 2 palm muted

e----------------------------------------------------------------------------|
b----------------------------------------------------------------------------|
g----------------------------------------------------------------------------|
d----9-9-9-999-12-12-12-121212-7-7-7-777-14-14-14-141414---------------------|
a----7-7-7-777-10-10-10-101010-5-5-5-555-12-12-12-121212---------------------|
D----7-7-7-777-10-10-10-101010-5-5-5-555-12-12-12-121212---------------------|

prechorus: played clean x 1

e----------------------------------------------------------------------------|
b----------------------------------------------------------------------------|
g----------------------------------------------------------------------------|
d----12121212121212121212121212121212----------------------------------------|
a----10101010101010101010101010101010----------------------------------------|
D----------------------------------------------------------------------------|

chorus: played distorted x 1

e----------------------------------------------------------------------------|
b----------------------------------------------------------------------------|
g----------------------------------------------------------------------------|
d----5555555555555555-0000000000000000-7777777777777777-9-1010101010101010---|
a----5555555555555555-0000000000000000-7777777777777777-9-1010101010101010---|
D----5555555555555555-0000000000000000-7777777777777777-9-1010101010101010---|

chorus continued
[ Tab from: http://www.guitartabs.cc/tabs/u/used/the_taste_of_ink_tab_ver_9.html ]
e----------------------------------------------------------------------------|
b----------------------------------------------------------------------------|
g----------------------------------------------------------------------------|
d-5       0        7       9  10
a-5  x16  0  x16   7  x16  9  10  x16
D-5       0        7       9  10

play intro clean x 1

play verse distorted x1

play prechorus clean x1

play chorus distorted x1

interlude part 1: played clean x 1

e----------------------------------------------------------------------------|
b----------------------------------------------------------------------------|
g---------7-----7------------------------------------------------------------|
d-------9-----9------9--------12---------------------------------------------|
a----10-----9-----12---10--15----10------------------------------------------|
D----------------------------------------------------------------------------|

interlude part 2: played distorted x2

e----------------------------------------------------------------------------|
b----------------------------------------------------------------------------|
g----1212121212121212-1414141414141414-1212121212121212-1717171717171717-----|
d----XXXXXXXXXXXXXXXX-XXXXXXXXXXXXXXXX-XXXXXXXXXXXXXXXX-XXXXXXXXXXXXXXXX-----|
a----1010101010101010-1212121212121212-1010101010101010-1515151515151515-----|
D----------------------------------------------------------------------------|

interlude part 2 continued

e----------------------------------------------------------------------------|
b----------------------------------------------------------------------------|
g----1616161616161616--------------------------------------------------------|
d----XXXXXXXXXXXXXXXX--------------------------------------------------------|
a----1414141414141414--------------------------------------------------------|
D----------------------------------------------------------------------------|

play verse distorted x2

play prechorus clean x1

play chorus distorted x2

play verse distorted until fade out

----------------------

key:

X = muted string
* = harmonic note
^ = bend note
Comments