Used - The Taste Of Ink Chords & Tabs

 

The Taste Of Ink Chords & Tabs

Used Chords & Tabs

Version: 8 Type: Tab 0 ratings
1 star 2 stars 3 stars 4 stars 5 stars
comments

The Taste Of Ink Tab

Tabbed by: The brizzle
song:"The tast of ink"
Artist: The Used 
Tuning:drop D


intro/Verse:
Kick your Distortion on third time!
E--------------------------------------------------------|
B--------------------------------------------------------|
G-7--7----------------------------------------7--7--7--7-|
D-x--x--10--9--/--12--12--10--9---7--7--7--5--5--5--5--5-|
A-7--7--7---7--/--10--10--10--10--5--5--5--5--7--7--7--7-|
D-7--7--7---7--/--10--10--10--10--5--5--5--5--0--0--0--0-|


Chorus:


E------------------------------------------------------|
B------------------------------------------------------|
G--7---------------------------------------------------|
D--5----0----7----9--10----xxxxxxx---------------------|
A--5----0----7----9--10----xxxxxxx---------------------|
D--5----0----7----9--10----xxxxxxx---------------------|


Bridge:

[ Tab from: http://www.guitartabs.cc/tabs/u/used/the_taste_of_ink_tab_ver_8.html ]
e------------------------------------------------------|
b------------------------------------------------------|
g-------------7----------------------------------------|
d---5---------7-------------7------------10------------|
a---5---------5-------------7------------10------------|
d---5-----------------------7------------10------------|


e------------------------------------------------------|
b------------------------------------------------------|
g------------------------7-----------------------------|
d-------5-----------7----------------7----------10-----|
a-----5----------5--------------7-----------10---------|
E---5-----------------------7------------10------------|

Outro played over Chours:
e------------------------------------------------------|
b------------------------------------------------------|
g----12-------12-----------12-------12-----------------|
d---------12-------14-----------12--------14-----------|
a------------------------------------------------------|
E------------------------------------------------------|
Comments