Used - The Taste Of Ink Chords & Tabs

 

The Taste Of Ink Chords & Tabs

Used Chords & Tabs

Version: 6 Type: Tab 0 ratings
1 star 2 stars 3 stars 4 stars 5 stars
comments

The Taste Of Ink Tab

   
Artist: The Used
Song: The taste of ink
Vocals: Bert McCracken
Guitar: Quinn Allman
Tab by: Kevin Smith , email: tcheshire@sympatico.ca
URL: www.theused.net

The FINAL, CORRECT tab of this GREAT song!


Recorded version is played in drop D (Low D): Listen to song for struming patterns
D,A,D,G,B,E

I've also seen them play this song (live) drop C (Full step down & Drop the low string to C)

Intro/Verse:
Guitar (Clean)

"Is it worth it........................"

E------------------------------------------------------------|
B------------------------------------------------------------|
G----7--7----------------------------------------7--7--7--7--|
D----x--x--10--9--/--12--12--10--9---7--7--7--5--5--5--5--5--|
A----7--7--7---7--/--10--10--10--10--5--5--5--5--7--7--7--7--|
D----7--7--7---7--/--10--10--10--10--5--5--5--5--0--0--0--0--|
[ Tab from: http://www.guitartabs.cc/tabs/u/used/the_taste_of_ink_tab_ver_6.html ]
Guitar(distortion)
E------------------------------------------------------------|
B------------------------------------------------------------|
G----7--7----------------------------------------7--7--7--7--|
D----x--x--10--9--/--12--12--10--9---7--7--7--5--5--5--5--5--|
A----7--7--7---7--/--10--10--10--10--5--5--5--5--7--7--7--7--|
D----7--7--7---7--/--10--10--10--10--5--5--5--5--0--0--0--0--|

Right before the chorus (from what i hear) are harmonics on the 5th fret (lower strings)

Chorus:

"So here Iam .........."
E--------------------------------------------------|
B--------------------------------------------------|
G--7------------------------------------(repeat)---|
D--5----0----7----9--10----xxxxxxx-----------------|
A--5----0----7----9--10----xxxxxxx-----------------|
D--5----0----7----9--10----xxxxxxx-----------------|

Semi-Chorus:

E---------------------------------------------------|
B-(0)(0)--------------------------------------------|
G--7--7--------0-----------------0(12)----0(12)-----|
D--9--9------9---9----9-/-----12-------12-------12--|
A-10--9---12-------12---/--15-----------------------|
D---------------------------------------------------|

There's one guitar playin octave's higher up during this slower part:

E--------------------------------|
B--------------------------------|
G-12-/--14--\--12--/--17--\--16--|
D--------------------------------|
A-10-/--12--\--10--/--15--\--14--|
D--------------------------------|


Back to Chorus:
Comments