Used - The Taste Of Ink Chords & Tabs

 

The Taste Of Ink Chords & Tabs

Used Chords & Tabs

Version: 5 Type: Tab 0 ratings
1 star 2 stars 3 stars 4 stars 5 stars
comments

The Taste Of Ink Tab

   
Artist: The Used
Song: The taste of ink
Vocals: Bert McCracken
Guitar: Quinn Allman
Tab by: Joe Deluca , email: joe_d182@hotmail.com

Songs is played in drop D (Low D): Listen to song for struming patterns
D,A,D,G,B,E

Intro/Verse:
Guitar (Clean)

"Is it worth it........................"

E-------3--3--3--3------3--3--3--3---------------------------------------------
B-------3--3--3--3------3--3--3--3----8--8--8--8----8--8--8--------------------
G-------0--0--5--4------5--7--5--4----7--7--7--7----7--7--7--------------------
D-------5--5--5--5------5--5--5--5----5--5--5--5----x--x--x----4--4--5--5--4--4
A-------0--0--0--0------3--3--3--3----5--5--5--5----5--5--5----5--5--5--5--5--5
D-------------------------------------5--5--5--5----0--0--0----0--0--0--0--0--0

**Repeat 2 times then repeat two more times with distortion**
Guitar(distortion)
E-------3--3--3--3------3--3--3--3---------------------------------------------
B-------3--3--3--3------3--3--3--3---------------------------------------------
G-------0--0--5--4------5--7--5--4-----------------------------11-11-11-11-11--
D-------5--5--5--5------5--5--5--5----7--7--5--5----7--7--7----x--x--x--x--x---
A-------0--0--0--0------3--3--3--3----5--5--5--5----5--5--5----9--9--9--9--9---
D-------------------------------------5--5--5--5----0--0--0----0--0--0--0--0---
[ Tab from: http://www.guitartabs.cc/tabs/u/used/the_taste_of_ink_tab_ver_5.html ]
**last chord before chorus**
E------------------------------------------------------------------------------
B--8--8--8--8--8---------------------------------------------------------------
G--7--7--7--7--7---------------------------------------------------------------
D--5--5--5--5--5---------------------------------------------------------------
A--0--0--0--0--0---------------------------------------------------------------
D------------------------------------------------------------------------------

Chorus:

"So here Iam .........."
E------------------------------------------------------------------------------
B--8--8--8--8-----3--3--3--3-----10--10--10--10\---------13--13--xx------------
G--7--7--7--7-----2--2--2--2-----9---9---9---9-\---------12--12--xx(repeat)----
D--5--5--5--5-----0--0--0--0-----7---7---7---7-\--9\-10--10--10--xx------------
A--5--5--5--5-----0--0--0--0-----7---7---7---7-\--9\-10--10--10--xx------------
D--5--5--5--5-----0--0--0--0-----7---7---7---7-\--9\-10--10--10--xx------------

Semi-Chorus:


E------------------------------------------------------------------------------
B--8--8--8--8--8-----15--15--15------------------------------------------------
G--7--7--7--7--7-----14--14--14---12--12--12---17--17--17----------------------
D--5--5--5--5--5-----0---0---0----x---x---x----x---x---x-----------------------
A--5--5--5--5--5-----0---0---0----10--10--10---15--15--15----------------------
D--5--5--5--5--5-----0---0---0-------------------------------------------------

"As long as your alive............."

E------------------------------------------------------------------------------
B------------------------------------------------------------------------------
G--15--15--15-\---14-14-14-\-----12--12--12--\-17--17--17----------------------
D--x---x---x--\---x--x--x--\-----x---x---x---\-x---x---x-----------------------
A--14--14--14-\---12-12-12-\-----10--10--10--\-15--15--15----------------------
D------------------------------------------------------------------------------

Back to Chorus:


Theres alot of wrong tabs for this song, so I thought Id tab it out
the right way since its a great song to play on the guitar.
Comments