Used - The Taste Of Ink Chords & Tabs

 

The Taste Of Ink Chords & Tabs

Used Chords & Tabs

Version: 4 Type: Tab 0 ratings
1 star 2 stars 3 stars 4 stars 5 stars
comments

The Taste Of Ink Tab

Artist: The Used
Track: The Taste of Ink
Album:The Used
Tunning:Normal(EADGBe)
Tabed By:Steve

  Verse(light Distortion)
e|------------------------------------------------------
B|------------------------------------------------------
G|------------5-5-5--55------------7-7-7--77------------
D|--7-7-7--77-5-5-5--55-5-5-5--55--7-7-7--77------------
A|--7-7-7--77-3-3-3--33-5-5-5--55--5-5-5--55------------
E|--5-5-5--55-----------3-3-3--33-----------------------

[ Tab from: http://www.guitartabs.cc/tabs/u/used/the_taste_of_ink_tab_ver_4.html ]
  Chorus(Distortion)
e|------------------------------------------------------
B|------------------------------------------------------
G|------------55555555------------77777777--------------
D|--77777777--55555555--55555555--77777777--------------
A|--77777777--33333333--55555555--55555555--------------
E|--55555555------------33333333------------------------


  Bridge(Clean)
e|------------------------------------------------------
B|------------------------------------------------------
G|-------------- 5--------------7-----------------------
D|------7----- 5---------5----7-------------------------
A|----7------3---------5----5---------------------------
E|--5----------------3----------------------------------


Thats all I have.

Any Corrections are welcome.  This is my first tab.
Comments