Used - The Taste Of Ink Chords & Tabs

 

The Taste Of Ink Chords & Tabs

Used Chords & Tabs

Version: 2 Type: Tab 0 ratings
1 star 2 stars 3 stars 4 stars 5 stars
comments

The Taste Of Ink Tab

This is how I play it (Gabriel Febles)



Verse (Clean)
e---------------------------------------------------------
b---------------------------------------------------------
g---------------------------------------------------------
d-------------------7--7--7--7----------------------------
a---5--5--5--5------5--5--5--5--7--7--7--7---10-10-10-10--
E---3--3--3--3------------------5--5--5--5---8--8--8--8---

Chorus (distored)
e------------------------------------------------
b------------------------------------------------
g------------------------------------------------
d-------------7-7-7-7----------------------------
a---5-5-5-5---5-5-5-5-----7-7-7-7---10-10-10-10--
E---3-3-3-3---------------5-5-5-5---8--8--8--8---

Slow part
[ Tab from: http://www.guitartabs.cc/tabs/u/used/the_taste_of_ink_tab_ver_2.html ]
e----------------------------------------------------
b----------------------------------------------------
g-------------7--------------------------------------
d---5---------7-(Ring)------7------------10----------
a---5-(Ring)--5-------------7-(Ring)-----10-(Ring)---
E---3-----------------------5------------8-----------


e------------------------------------------------------
b------------------------------------------------------
g------------------------7-----------------------------
d-------5-----------7----------------7----------10-----
a-----5----------5--------------7-----------10---------
E---3-----------------------5------------8-------------

Final part
e-----------------------------------------------------------
b-----------------------------------------------------------
g----12-------12-----------12-------12----------------------
d---------12-------14-----------12--------14----------------
a-----------------------------------------------------------
E-----------------------------------------------------------


any correction send it to Gabrielfebles@hotmail.com
Comments