Used - The Taste Of Ink Chords & Tabs

 

The Taste Of Ink Chords & Tabs

Used Chords & Tabs

Version: 10 Type: Tab 0 ratings
1 star 2 stars 3 stars 4 stars 5 stars
comments

The Taste Of Ink Tab

   
Artist: The Used
Song: The Taste of Ink
Tuning: drop D (Low D) 
Tabber: Brad Abney
E-Mail: Hawthorne_heights_2@hotmail.com

This 100% so enjoi


Intro/Verse:
Guitar (Clean)

"Is it worth it........................"
E------------------------------------------------------------|
B------------------------------------------------------------|
G----7--7----------------------------------------7--7--7--7--|
D----x--x--10--9--/--12--12--10--9---7--7--7--5--5--5--5--5--|
A----7--7--7---7--/--10--10--10--10--5--5--5--5--7--7--7--7--|
D----7--7--7---7--/--10--10--10--10--5--5--5--5--0--0--0--0--|

Guitar(distortion)
E------------------------------------------------------------|
B------------------------------------------------------------|
G----7--7----------------------------------------7--7--7--7--|
D----x--x--10--9--/--12--12--10--9---7--7--7--5--5--5--5--5--|
A----7--7--7---7--/--10--10--10--10--5--5--5--5--7--7--7--7--|
D----7--7--7---7--/--10--10--10--10--5--5--5--5--0--0--0--0--|


Chorus:

"So here Im .........."
E--------------------------------------------------------------------------|
B--------------------------------------------------------(REPEAT)----------|
G--------------------------------------------------------------------------|
D--5--------0--------7--------9--------10-------xxxxxxx--------------------|
A--5x8-----0-x8-----7-x5-----9-x1-----10-x8----xxxxxxx--------------------|
D--5--------0--------7--------9--------10-------xxxxxxx--------------------|


Verse 2:

"Won't you think Im ........."
E------------------------------------------------------------|
B------------------------------------------------------------|
G----7--7----------------------------------------7--7--7--7--|
D----x--x--10--9--/--12--12--10--9---7--7--7--5--5--5--5--5--|
A----7--7--7---7--/--10--10--10--10--5--5--5--5--7--7--7--7--|
D----7--7--7---7--/--10--10--10--10--5--5--5--5--0--0--0--0--|

E------------------------------------------------------------|
B------------------------------------------------------------|
G----7--7----------------------------------------7--7--7--7--|
D----x--x--10--9--/--12--12--10--9---7--7--7--5--5--5--5--5--|
A----7--7--7---7--/--10--10--10--10--5--5--5--5--7--7--7--7--|
D----7--7--7---7--/--10--10--10--10--5--5--5--5--0--0--0--0--|

Semi-Chorus:

E----------------------------------------------------------|
B----------------------------------------------------------|
G------------7---------7---------------0-------0-----------|
D----------9---9-----9---7--/--------9------12-------------|
A------10---------9---------/----12-----15-----------------|
D----------------------------------------------------------|


Chorus:
[ Tab from: http://www.guitartabs.cc/tabs/u/used/the_taste_of_ink_tab_ver_10.html ]
"So here Im .........."
E--------------------------------------------------------------------------|
B--------------------------------------------------------(REPEAT)----------|
G--------------------------------------------------------------------------|
D--5--------0--------7--------9--------10-------xxxxxxx--------------------|
A--5x8-----0-x8-----7-x5-----9-x1-----10-x8----xxxxxxx--------------------|
D--5--------0--------7--------9--------10-------xxxxxxx--------------------|


Bride:                                    Let Ring
      "As long as your ........"
E--------------------------------------------------------|
B--------------------------------------------------------|
G-------7--7---------------------7--7--------------------|
D--5--5-7--7-7-7H9/10--10--5--5-7--7-7-7H9/10----------|
A--5--5-5--5-7-7H9/10--10--5--5-5--5-7--7H9/10----------|
D--5--5------7-7H9/10--10--5--5------7--7H9/10----------|


Verse 3:

"And Won't Im ......."
E------------------------------------------------------------|
B------------------------------------------------------------|
G----7--7----------------------------------------7--7--7--7--|
D----x--x--10--9--/--12--12--10--9---7--7--7--5--5--5--5--5--|
A----7--7--7---7--/--10--10--10--10--5--5--5--5--7--7--7--7--|
D----7--7--7---7--/--10--10--10--10--5--5--5--5--0--0--0--0--|

E------------------------------------------------------------|
B------------------------------------------------------------|
G----7--7----------------------------------------7--7--7--7--|
D----x--x--10--9--/--12--12--10--9---7--7--7--5--5--5--5--5--|
A----7--7--7---7--/--10--10--10--10--5--5--5--5--7--7--7--7--|
D----7--7--7---7--/--10--10--10--10--5--5--5--5--0--0--0--0--|

Semi-Chorus:

E----------------------------------------------------------|
B----------------------------------------------------------|
G------------7---------7---------------0-------0-----------|
D----------9---9-----9---7--/--------9------12-------------|
A------10---------9---------/----12-----15-----------------|
D----------------------------------------------------------|


Chorus:

"So here Im .........."
E--------------------------------------------------------------------------|
B--------------------------------------------------------(REPEAT)----------|
G--------------------------------------------------------------------------|
D--5--------0--------7--------9--------10-------xxxxxxx--------------------|
A--5x8-----0-x8-----7-x5-----9-x1-----10-x8----xxxxxxx--------------------|
D--5--------0--------7--------9--------10-------xxxxxxx--------------------|


Outro:

E------------------------------------------------------------|
B------------------------------------------------------------|
G----7--7----------------------------------------7--7--7--7--|
D----x--x--10--9--/--12--12--10--9---7--7--7--5--5--5--5--5--|
A----7--7--7---7--/--10--10--10--10--5--5--5--5--7--7--7--7--|
D----7--7--7---7--/--10--10--10--10--5--5--5--5--0--0--0--0--|

Semi-Chorus:

E----------------------------------------------------------|
B----------------------------------------------------------|
G------------7---------7---------------0-------0-----------|
D----------9---9-----9---7--/--------9------12-------------|
A------10---------9---------/----12-----15-----------------|
D----------------------------------------------------------|
Comments