Used - The Taste Of Ink Chords & Tabs

 

The Taste Of Ink Chords & Tabs

Used Chords & Tabs

Version: 4 Type: Bass Tab 0 ratings
1 star 2 stars 3 stars 4 stars 5 stars
comments

The Taste Of Ink Bass Tab

   
-----------------------------------------------------------------------------
                 THE TASTE OF INK - THE USED
-----------------------------------------------------------------------------


TUNING: DROPPED D ( D A D G )

  1ST VERSE
G|-----------------------------------------------------------------------------|
D|-------------------------------------------------------------------------7-7-|
A|-0/15/0--0-0-0-02-3-3-3-3---------5-5-5-5--0-0-0-02-3-3-3-3---------5-5-5-5--|
D|--------------------------5-5-5-5------0-0------------------5-5-5-5----------|

G|---------------------------------------------------------------------------|
D|-------------------------------77--77--------------------------------------|
A|0-0-0-02-3-3-3-3---------5-5-00--00----------------------------------------|
D|-----------------5-5-5-5---------------------------------------------------|

  CHORUS
G|---------------------------------------------------------------------------|
D|--------------------------------------------------------5-5----------------|
A|------------------5-55-5-5-5-55-5-0-00-0-00-0-00-02-3-33-3-3XXXXXX---------|
D|-5-55-5-55-55-5-55---------------------------------------------------------|
  
  CHORUS (CONTINUED)
G|---------------------------------------------------------------------------|
D|--------------------------------------------------------5---5-5------------|
A|-------------------------------------0-00-0-00-00-02-3-3-3-3-3-3-----------|
D|-5-55-5-55-5-5-5-5-0-00-0-00-0-0-0-00--------------------------------------|

  2ND VERSE
G|---------------------------------------------------------------------------|
D|---------------------------------------------------------------------------|
A|-X/-0-0-0-02-3-3-3-3/-------//5-5-55555555---------------------------------|
D|---------------------5-5-5-5---------------5-55-5-5-5-5-5-5----------------|

  2ND CHORUS
G|---------------------------------------------------------------------------|
D|----------------------------------------------------------5----------------|
A|-------------------5-55-5-55-5-5-5-55-0-00-0-0-0-00-02-3-3-3-3XXXXXXX------|
D|-5-55-5-55-55-5-5-5--------------------------------------------------------|
[ Tab from: http://www.guitartabs.cc/tabs/u/used/the_taste_of_ink_btab_ver_4.html ]
G|---------------------------------------------------------------------------|
D|---------------------------------------------------------5---5--5----------|
A|-------------------------------------0-00-0-00-0-0-02-3-3-3-3-33-3---------|
D|-5-55-5-55-5-5-5-5-0-00-0-00-0-0-0-00--------------------------------------|

G|---------------------------------------------------------------------------|
D|--------12-----12----12----------------------------------------------------|
A|-/10-1010--10-10-1010--10/-------------------------------------------------|
D|---------------------------------------------------------------------------|

  BRIDGE
G|-----7~~-----------7---------9------12-------------------------------------|
D|-5~~-----7~~10~--5~-5---7--7~-7--10~--10-10-10-----------------------------|
A|----------------------5~-5-------------------------------------------------|
D|---------------------------------------------------------------------------|

  3RD VERSE
G|----------------------------------------------------------------------------------|
D|----------------------------------------------------------------------------------|
A|-0-0-0-02-3-3-3-3----------5-5-5-5-/12/-0-0-0-02-3-3-3-3----------5555555555555555|
D|-----------------5-5-5-5-0--------0---------------------5-5-5-5-0-----------------|

  3RD CHORUS
G|--------------------------------------------------------------------------|
D|--------------------------------------------------------5-----------------|
A|-------------------5-5-55-55-55-5-5-0-00-0-0-0-00-02-3-3-3-3XXXXXXX-------|
D|-5-55-5-55-55-5-5-5-------------------------------------------------------|

G|--------------------------------------------------------------------------|
D|------------------------------------------------------5---5-5-------------|
A|------------------------------------0-0-00-0-00-02-3-3-3-3-3-3------------|
E|-5-55-5-55-55-5-5-0-00-0-0-0-00-00-0--------------------------------------|

G|-----------------------------------12-----12----12------------------------|
D|---------12-----12----12--7/10-1010--10-10--1010--101010------------------|
A|-/10-1010--10-10--1010--10------------------------------------------------|
E|--------------------------------------------------------------------------|

  PLAY THIS VERSE AND FADE
G|--------------------------------------------------------------------------|
D|------------------------------77--77--------------------------------------|
A|-0-0-0-0/3-3-3-3--------5-5-55--55----------------------------------------|
E|----------------5-5-5-5---------------------------------------------------|
Comments