Used - The Taste Of Ink Chords & Tabs

 

The Taste Of Ink Chords & Tabs

Used Chords & Tabs

Version: 3 Type: Bass Tab 0 ratings
1 star 2 stars 3 stars 4 stars 5 stars
comments

The Taste Of Ink Bass Tab

   
tabbed by Trevy Lott
This is a cool song hope you like it.
Drop D


comes in with drums   ( 3/12/3 )
g---------------------------------------------
d--------------------------------------------- Verse
a--------------------------------------9-9-9--
d--7-7-7-7-/-10-10-10-10-9-5-5-5-5-0---------0
[ Tab from: http://www.guitartabs.cc/tabs/u/used/the_taste_of_ink_btab_ver_3.html ]
g----------------------------------------------------------------
d---------------------------------------------------------------- Chorus
a----------------------------------------------------------------
d-5-5-5-5-5-5-5-5-0-0-0-0-0-0-0--7-7-7-7-7-7-7H9 10-10-10-10-10--




g-----------------------------------------------------------
d-----------------------------------------------------------
a-10~----------------12~--------------10~----------12~------  bridge
d-----------------------------------------------------------


Verse x3
chorus x2
Verse x2
chorus x2
bridge x1
verse x2
chorus x2
verse Fades out    (not perfect but i tried)
Comments