Used - The Taste Of Ink Chords & Tabs

 

The Taste Of Ink Chords & Tabs

Used Chords & Tabs

Version: 1 Type: Bass Tab 0 ratings
1 star 2 stars 3 stars 4 stars 5 stars
comments

The Taste Of Ink Bass Tab

   
First the guitar does the intro while bert sings.

the the bass comes in with a slide e-3/12\0
then:

body(stop after each hit)                          x3
g-------------------------------------------------
d-------------------------------------------------
a------------3--3--3--33--------------5--5--5--55-
e5--5--5--55--------------3--3--3--33-------------

delay(hold note)                                   x1
g-------------------------------------------------
d-------------------------------------------------
a-------------------------------------------------
e3------------------------------------------------

chorus(hold notes)                                 x2
g-------------------------------------------------
d-------------------------------------------------
a------------5---5---5----------------3---3---3---
e3---3---3--------------- 5---5---5---------------

the guitar plays again, and then the bass does a slide:
e-3-3/12\0
then:

body(stop after each hit)                         x1
g-------------------------------------------------
d-------------------------------------------------
a------------3--3--3--3--------------5--5--5--5---
e5--5--5--5--------------3--3--3--3---------------

bridge(hold note)                                  x1
g-------------------------------------------------
d-------------------------------------------------
a----3-----3---3----------------------------------
e-3-----3-----3-----------------------------------

chorus(hold notes)                                 x2
g-------------------------------------------------
d-------------------------------------------------
a------------5---5---5----------------3---3---3---
e3---3---3---------------2---2---2-3--------------
[ Tab from: http://www.guitartabs.cc/tabs/u/used/the_taste_of_ink_btab.html ]
bridge(hold note)                                  x1
g-------------------------------------------------
d-------------------------------------------------
a----3-----3---3----------------------------------
e-3-----3-----3-----------------------------------

bass solo/brige 2(hold notes)                      x1
g-------------------------------------------------
d-------------------------------------------------
a---------5---5--5----------3---3--3--------------
e3---3--3----------5---5--5-----------------------

bass solo/bridge 2 part two                       x2
g-------------------------------------------------
d-------------------------------------------------
a-----5-----5----5----5-----5----5----------------
e-5-----5----5----3-----3----3--------------------
continued
g-------------------------------------------------
d-------------------------------------------------
a----6----6----6----5----5----5-------------------
e6----6----6----5----5----5-----------------------

body(stop after each hit)                         x2
g-------------------------------------------------
d-------------------------------------------------
a------------3--3--3--3--------------5--5--5--5---
e5--5--5--5--------------3--3--3--3---------------

chorus(hold notes)                                 x2
g-------------------------------------------------
d-------------------------------------------------
a------------5---5---5----------------3---3---3---
e3---3---3---------------2---2---2-3--------------

bridge 3                                           x1
g-------------------------------------------------
d-------------------------------------------------
a---3-----3----3----7-----7-----7-----------------
e3-----3-----3---7-----7-----7--------------------

body(stop after each hit)                      goes till fade-out
g-------------------------------------------------
d-------------------------------------------------
a------------3--3--3--3--------------5--5--5--5---
e5--5--5--5--------------3--3--3--3---------------

BY
PIRO
email me at rockonsk8r@aol.com for any coments, questions, anything.
Artists always need feedback.
Comments