Used - Take It Away Chords & Tabs

 

Take It Away Chords & Tabs

Used Chords & Tabs

Version: 2 Type: Tab 0 ratings
1 star 2 stars 3 stars 4 stars 5 stars
comments

Take It Away Tab

Artist: The Used
Song: Take It Away
Album: In Love and Death

intro (guitar 1&2)
e|------------------|
b|------------------|
g|-----121212121212-|
d|-2/--x-x-x-x-x-x--|
a|-2/--101010101010-|
d|-2/---------------|

Verse/Chorus
e|--------------------|
b|--------------------|
g|--------------------|
d|-2222--55--77--5555-|
a|-2222--55--77--3333-|
d|-2222--55--77-------|
[ Tab from: http://www.guitartabs.cc/tabs/u/used/take_it_away_tab_ver_2.html ]
verse 2
e|-----------------------------------------------------|
b|-----------------------------------------------------|
g|-----------------------------------------------------|
d|-121212121212121212121212-12-14-12-14-12/10-12-14-9--|
a|-x-x-x-x-x-x-x-x-x-x-x-x-----------------------------|
d|-101010101010101010101010----------------------------|

Chorus
verse 2
Chorus

verse 3
e|----------------|
b|----------------|
g|-12--12--12--12-|
d|-x---x---x---x--|
a|-10--10--10--10-|
d|----------------|

pause through the song
Chorus
Intro

There you go! its pretty damn good im sorry if i didnt put the amount of times
everything is played but you can sure figure it out...by the way THE USED KICKS YOUR ASS!
Comments