Used - Take It Away Chords & Tabs

 

Take It Away Chords & Tabs

Used Chords & Tabs

Version: 2 Type: Bass Tab 0 ratings
1 star 2 stars 3 stars 4 stars 5 stars
comments

Take It Away Bass Tab

   
First off, I'd just like to say Jeph is an amazing bassist. He can move his fingers so
fast, he's really great. Well, enjoy.

| \  slide down
| h  hammer-on

Take It Away - The Used
Tabbed By : Justin
e-mail: limpo2000@hotmail.com

Tuning:Drop c (GDAC)

introx1
G|--------------------------------------------------------------------------|
D|--------------------------------------------------------------------------|
A|--------------------------------------------------------------------------|
C|-4\-------44\------4\-------44\-------------------------------------------|

intro pt.2 x3
G|--------------------------------------------------------------------------|
D|--------------------------------------------------------------------------|
A|-----------000-33333------------------------------------------------------|
C|-444-77777----------------------------------------------------------------|

intro pt.2 continuedx1
G|--------------------------------------------------------------------------|
D|--------------------------------------------------------------------------|
A|--------5h70750303--------------------------------------------------------|
C|-444-777------------------------------------------------------------------|

versex1
G|--------------------------------------------------------------------------|
D|--------------------------------------------------------------------------|
A|----------03-3--03-3-05-5--5-5-07-7-07-7-7-0070---------------------------|
C|-4-4-04-4-----------------------------------------------------------------|

G|--------------------------------------------------------------------------|
D|--------------------------------------------------------------------------|
A|----------03-3--03-3-------------77-7--067771077--------------------------|
C|-4-4-04-4------------22-2--022-2------------------4-----------------------|

prechorus (very quiet, listen closely)
G|-----11h1211--------------------------------------------------------------|
D|---12-------12------------------------------------------------------------|
A|-10-----------------------------------------------------------------------|
C|--------------------------------------------------------------------------|

chorusx4
G|--------------------------------------------------------------------------|
D|--------------------------------------------------------------------------|
A|-----------000-33333------------------------------------------------------|
C|-444-77777----------------------------------------------------------------|

pre chorus
G|--------------------------------------------------------------------------|
D|--------------------------------------------------------------------------|
A|--------------------------------------------------------------------------|
C|--4--4--4-4---------------------------------------------------------------|

verse 2
G|--------------------------------------------------------------------------|
D|--------------------------------------------------------------------------|
A|-----------03-3--03-0--05-5--05-5--07-7--077666697------------------------|
C|-04-4-04-4----------------------------------------------------------------|

G|--------------------------------------------------------------------------|
D|--------------------------------------------------------------------------|
A|--------3(x16)--------7(x16)----------------------------------------------|
C|-4(x16)--------2(x16)-----------------------------------------------------|

pre chorus

chorusx3

then thisx1
G|-------------------5------------------------------------------------------|
D|-------------777555-------------------------------------------------------|
A|---------5h70-------------------------------------------------------------|
C|-444-777------------------------------------------------------------------|

chorusx3
[ Tab from: http://www.guitartabs.cc/tabs/u/used/take_it_away_btab_ver_2.html ]
then this x1
G|--------------------------------------------------------------------------|
D|------------7776101010----------------------------------------------------|
A|-----------0--------------------------------------------------------------|
C|-444-77777----------------------------------------------------------------|

breakdownx1
G|--------------------------------------------------------------------------|
D|--------------------------------------------------------------------------|
A|--------------------------------------------------------------------------|
C|-4-4-4-4-44-4-------------------------------------------------------------|

G|--------------------------------------------------------------------------|
D|--------------------------------------------------------------------------|
A|---------220--------------------------------------------------------------|
C|-4-4-4-4----4-------------------------------------------------------------|

G|--------------------------------------------------------------------------|
D|--------------------------------------------------------------------------|
A|--------------------------------------------------------------------------|
C|-4-4-4-4-44-4-------------------------------------------------------------|

G|--------------------------------------------------------------------------|
D|--------------------------------------------------------------------------|
A|--------------222420------------------------------------------------------|
C|-4-4-4-4-44-4-------------------------------------------------------------|

then thisx1
G|--------------------------------------------------------------------------|
D|------------------------10(x8)9h10999999----------------------------------|
A|-7(x16)-10(x16)-12(x16)---------------------------------------------------|
C|--------------------------------------------------------------------------|

G|------------------------17(x8)1617161716171617----------------------------|
D|--------------------------------------------------------------------------|
A|-7(x16)-10(x16)-12(x16)---------------------------------------------------|
C|--------------------------------------------------------------------------|

next part (faint part)
G|--------------------------------------------------------------------------|
D|--------------------------------------------------------------------------|
A|--------------------------------------------------------------------------|
C|-4----44----4----44----4--------------------------------------------------|

chorusx3

then
G|--------------------------------------------------------------------------|
D|--------------------------------------------------------------------------|
A|---7-5-555-444-3-333------------------------------------------------------|
C|-44-----------------------------------------------------------------------|

thisx2
G|--------------------------------------------------------------------------|
D|-----------------5--------------------------------------------------------|
A|---2----7-0070-33-3-------------------------------------------------------|
C|-44-4-55-5----------------------------------------------------------------|

thisx1
G|--------------------------------------------------------------------------|
D|---9----7----2----5-------------------------------------------------------|
A|-77-7-55-5-00-0-33-3------------------------------------------------------|
C|--------------------------------------------------------------------------|

thisx1
G|--------------------------------------------------------------------------|
D|--------------------------------------------------------------------------|
A|-----------012121210------------------------------------------------------|
C|-444-77777----------------------------------------------------------------|

G|--------------------------------------------------------------------------|
D|--------------------------------------------------------------------------|
A|--------------------------------------------------------------------------|
C|-4\---44\-44\-4\-4\-4\4\\-4\-4\-4\-4\-4\\-4\------------------------------|


Thanks guys!! I think it's pretty close. Please rate!!
Comments