Used - Take It Away Chords & Tabs

 

Take It Away Chords & Tabs

Used Chords & Tabs

Version: 1 Type: Bass Tab 0 ratings
1 star 2 stars 3 stars 4 stars 5 stars
comments

Take It Away Bass Tab

e-mail:snoutman928@yahoo.com 
[ Tab from: http://www.guitartabs.cc/tabs/u/used/take_it_away_btab.html ]
Tuning:Drop D
intro
G|---------------------------------------------------------------------------|
D|---------------------------------------------------------------------------|
A|-7-5-7------5-7------------------------------------------------------------|
D|---------------------------------------------------------------------------|
chorus
G|---------------------------------------------------------------------------|
D|---------------------------------------------------------------------------|
A|---------------0-0-0-3-3-3-3-----------------------------------------------|
D|--2-2-2-5-5-5-5------------------------------------------------------------|
verse X2 
G|---------------------------------------------------------------------------|
D|-2-2-2--0-2-0-2---------------0-0-0--0-0-0--2-2-2--2-2-2-------------------|
A|---------------3-3-3--0-3-0-3----------------------------------------------|
D|---------------------------------------------------------------------------|
Prechorus (Listen to the song to tell where to put this in)
G|---------------------------------------------------------------------------|
D|--0-2-4-5-4-0--------------------------------------------------------------|
A|-3-------------------------------------------------------------------------|
D|---------------------------------------------------------------------------|
chorus
verse
chorus

bridge (join in at "take my hand")
G|--------0(x14)-2(X14)-5(X14)-----------------------------------------------|
D|-2(X14)--------------------------------------------------------------------|
A|---------------------------------------------------------------------------|
D|---------------------------------------------------------------------------|
part after bridge
G|---------------------------------------------------------------------------|
D|---------------------------------------------------------------------------|
A|----------------0-0-0--3-3-3-3---------------------------------------------|
D|-2-2-2--5-5-5-5------------------------------------------------------------|
chorus

well thats it (i think). any questions or comments either email me or put it on the comment page.
Comments