Used - Sound Effects And Over Dramatics Chords & Tabs

 

Sound Effects And Over Dramatics Chords & Tabs

Used Chords & Tabs

Version: 3 Type: Tab 0 ratings
1 star 2 stars 3 stars 4 stars 5 stars
comments

Sound Effects And Over Dramatics Tab

   
----------------------------------------------------------------------------
               SOUND EFFECTS AND OVERDRAMATICS - The Used
----------------------------------------------------------------------------
Tabbed by: Stumaster18
Email: ????

wow..okay, the people who tabbed the intro to this song really suck. nowhere close.
here is the correct version of the WHOLE song. PLZ RATE!!
P.S. follow the order of playing at the bottom!!

Tuning: Drop D (                                               
Intro:                                         _
e|-----------------------------------------|    \
B|-------7-7-------7-7-------7-7-------7-7-|    | 
G|-------7-7-------7-7-------7-7-------7-7-|    |
D|-4-4-4-----4-4-4-----4-4-4-----4-4-4-----|    |
A|-4-4-4-----4-4-4-----4-4-4-----4-4-4-----|    |
D|-4-4-4-----4-4-4-----4-4-4-----4-4-4-----|    \
                                                /  
e|-----------------------------------------|    |
B|-------7-7-------7-7-------7-7-------7-7-|    |
G|-------7-7-------7-7-------7-7-------7-7-|    |
D|-0-0-0-----0-0-0-----0-0-0-----0-0-0-----|    |
A|-0-0-0-----0-0-0-----0-0-0-----0-0-0-----|    |
D|-0-0-0-----0-0-0-----0-0-0-----0-0-0-----|   _/

Verse: Played softly with light distortion
e|-------------------------------------------------------------
B|-------------------------------------------------------------
G|-------------------------------------------------------------
D|-------------------------------------------------------------
A|---------------------------0---------0---------2---------2---
D|-4-4-4-4-4-4-4-4-4-4-2-2-2---2-2-2-2---2-0-0-0---0-0-0-0---0-...

   ---------------------|
   ---------------------|
   ---------------------| 
   ---------------------|
   ---------------------|
...-2-2-2-2-2-6-6-6-6-6-|

Pre-Chorus: Also played softly with light distortion
e|-------------------------------------------------------------------------|
B|-------------------------------------------------------------------------|
G|-------------------------------------------------------------------------|
D|-------------------------------------------------------------------------|
A|-------------------------------------------------------------------------|
D|-4-4-4-4-4-4-4-4-4-4-6-6-6-6-6-6-6-6-6-6-7-7-7-7-7-7-7-7-7-7-6-6-6-6-6-6~|

Chorus:                                        _
e|-----------------------------------------|    \
B|-------7-7-------7-7-------7-7-------7-7-|    | 
G|-------7-7-------7-7-------7-7-------7-7-|    |
D|-4-4-4-----4-4-4-----4-4-4-----4-4-4-----|    |
A|-4-4-4-----4-4-4-----4-4-4-----4-4-4-----|    |
D|-4-4-4-----4-4-4-----4-4-4-----4-4-4-----|    \
                                                /  
e|-----------------------------------------|    |
B|-------7-7-------7-7-------7-7-------7-7-|    |
G|-------7-7-------7-7-------7-7-------7-7-|    |
D|-0-0-0-----0-0-0-----0-0-0-----0-0-0-----|    |
A|-0-0-0-----0-0-0-----0-0-0-----0-0-0-----|    |
D|-0-0-0-----0-0-0-----0-0-0-----0-0-0-----|   _/
[ Tab from: http://www.guitartabs.cc/tabs/u/used/sound_effects_and_over_dramatics_tab_ver_3.html ]
Interlude: ALL PALM MUTED!                                           _
e|-----------------------------------------------------------------|  \
B|-----------------------------------------------------------------|  |
G|-----------------------------------------------------------------|  |
D|-----------------------------------------------------------------|  |
A|-------5-5-5-------5-5-5-----5-5-------4-4-4-------4-4-4-----4-4-|  |
D|-4-4-4-------4-4-4-------4-4-----2-2-2-------2-2-2-------2-2-----|  \
                                                                      /
e|-----------------------------------------------------------------|  |
B|-----------------------------------------------------------------|  |
G|-----------------------------------------------------------------|  |
D|-----------------------------------------------------------------|  |
A|-------2-2-2-------2-2-2-----2-2-------4-4-4-------4-4-4-----4-4-|  |
D|-0-0-0-------0-0-0-------0-0-----2-2-2-------2-2-2-------2-2-----| _/ 

Solo/Interlude 2
e|-------------------------------------------------------------|
B|-19-19-19-19-19-19-17-17-17-17-17-17-16-16-16-16-16-16-14-14-14-14-14-14-|
G|-------------------------------------------------------------------------|
D|-------------------------------------------------------------------------|
A|-------------------------------------------------------------------------|
D|-------------------------------------------------------------------------|

e|-----------------------------------------------------------------------|
B|-17-17-17-17-17-17-19-19-19-19-19-19-17-17-17-17-17-17-16-16-16-16-16~-|
G|-----------------------------------------------------------------------|
D|-----------------------------------------------------------------------|
A|-----------------------------------------------------------------------|
D|-----------------------------------------------------------------------|

Weird Chorus:                                  _
e|-----------------------------------------|    \
B|-------------------------------------7-7-|    | 
G|-------------------------------------7-7-|    |
D|-4-4-4-----4-4-4-----4-4-4-----4-4-4-----|    |
A|-4-4-4-----4-4-4-----4-4-4-----4-4-4-----|    |
D|-4-4-4-----4-4-4-----4-4-4-----4-4-4-----|    \
                                                /  
e|-----------------------------------------|    |
B|-------7-7-------7-7-------7-7-------7-7-|    |
G|-------7-7-------7-7-------7-7-------7-7-|    |
D|-0-0-0-----0-0-0-----0-0-0-----0-0-0-----|    |
A|-0-0-0-----0-0-0-----0-0-0-----0-0-0-----|    |
D|-0-0-0-----0-0-0-----0-0-0-----0-0-0-----|   _/

Outro:
e|----------------------------------|
B|----------------------------------|
G|----------------------------------|
D|-6-6-6-x-x-6-6-6-x-x-6-6-6-x-x-6~-|
A|-6-6-6-x-x-6-6-6-x-x-6-6-6-x-x-6~-|
D|-6-6-6-x-x-6-6-6-x-x-6-6-6-x-x-6~-|


ORDER OF PARTS FOR SONG
Intro x1
Verse x1
Pre-Chorus x1
Chorus x1
Verse x1
Pre-Chorus x1
Chorus x2
Interlude x2
Solo/Interlude 2 x1
Chorus (played a bit slower) x1
Bass Interlude (no guitaring)
Weird Chorus x1
Chorus x1
Outro x1

|  ~  hold note
========================================================================

pretty fun song to play. hope you enjoy my work!
Comments