Used - Say Days Ago Chords & Tabs

 

Say Days Ago Chords & Tabs

Used Chords & Tabs

Version: 1 Type: Tab 0 ratings
1 star 2 stars 3 stars 4 stars 5 stars
comments

Say Days Ago Tab

   
The Used - Say Days Ago

e-0-0-----------0-0-0-0-0-----------------------------------------------|
B-0-0-----------0-0-0-0-0-----------------------------------------------|
G-0-0-7*-7*-7*--0-0-0-0-0--7-7-7~--7-7-7~--7-7-7~-7-7-7~----------------|
D-----7*-7*-7*--0-0--------7-7-7~--7-7-7~--7-7-7~-7-7-7~----------------|
A-----7*-7*-7*--0-0--------7-7-7~--7-7-7~--7-7-7~-7-7-7~----------------|
D-----7*-7*-7*--0-0-----------------------------------------------------|

e-----------------------------------------------------------------------|
B-----------------------------------------------------------------------|
G-x-x-7-x-x-x-7-x-7-x-x-7-x-x-7-x-x-x-7-x-7------x-x-x-x----------------|
D-x-x-7-x-x-x-7-x-7-x-x-7-x-x-7-x-x-x-7-x-7-(x2)-x-x-x-x----------------|
A-0-0-7-0-0-0-7-0-7-0-0-7-0-0-7-0-0-0-7-0-7------x-x-x-x----------------|
D-0-0-0-0-0-0-0-0-0-0-0-0-0-0-0-0-0-0-0-0-0------x-x-x-x----------------|

Verse
      
e------------------------------------------------------------x-x-x-x-x--|
B----8-8-8-8-8-8-8-8-8-8-8-8-8-8-8-8-8-8-8-8-8-8-8-8-8-8-8-8-8-8-8-8-8--|
G------------------------------------------------------------0-0-0-0-0--|
D-----------------------------------------------------------------------|
A-----------------------------------------------------------------------|
D-----------------------------------------------------------------------|
  
Post Verse
e-----------------------------------------------------------------------|
B-----------------------------------------------------------------------|
G-9-9-9-9-9-9-9-11-11-11-11-11-11-11-11-9-9-9-9-9-9-9-10-10-10-10-10-10-|
D-x-x-x-x-x-x-x-x--x--x--x--x--x--x--x--x-x-x-x-x-x-x--x--x--x--x--x—x--|
A-7-7-7-7-7-7-7-9--9--9--9--9--9--9--9--7-7-7-7-7-7-7-12-12-12-12-12-12-|
D-----------------------------------------------------------------------|
[ Tab from: http://www.guitartabs.cc/tabs/u/used/say_days_ago_tab.html ]
Post Verse: Continued…
e-----------------------------------------------------------------------|
B-----------------------------------------------------------------------|
G-9-9-9-9-9-9-9-14-14-14-14-14-14-14-14-9-9-9-9-9-9-9-10----------------|
D-x-x-x-x-x-x-x--x--x--x--x--x--x--x--x-x-x-x-x-x-x-x--x----------------|
A-7-7-7-7-7-7-7-12—12-12-12-12-12-12-12-7-7-7-7-7-7-7-12----------------|
D-----------------------------------------------------------------------|

Pre-Chorus/Solo
e-----------------------------------------------------------------------|
B---12-15-12-13-12----12-12-12------------------------------------------|
G------------------14---------------------------------------------------|
D--------------------------------14-14-14-14----------------------------|
A-----------------------------------------------------------------------|
D-----------------------------------------------------------------------|

Chorus
e----------------------------------------------------------------------|
B----------------------------------------------------------------------|
G-9-9-9-9-9-9-9-7-7-7-7-7-7-7-5-5-5-5-5-5-5-4-4-4-4-4-4-4-4------------|
D-9-9-9-9-9-9-9-7-7-7-7-7-7-7-5-5-5-5-5-5-5-4-4-4-4-4-4-4-4------------|
A-7-7-7-7-7-7-7-5-5-5-5-5-5-5-3-3-3-3-3-3-3-2-2-2-2-2-2-2-2------------|
D-------------------------------------------2-2-2-2-2-2-2-2------------|
      Still Remember what it tastes like what it felt like…

Pre-Verse
e-----------------------------------------------------------------------|
B-----------------------------------------------------------------------|
G-x-x-7-x-x-x-7-x-7-x-x-7-x-x-7-x-x-x-7-x-7---7-7-7--7-7----------------|
D-x-x-7-x-x-x-7-x-7-x-x-7-x-x-7-x-x-x-7-x-7---7-7-7--7-7----------------|
A-0-0-7-0-0-0-7-0-7-0-0-7-0-0-7-0-0-0-7-0-7---7-7-7--7-7----------------|
D-0-0-0-0-0-0-0-0-0-0-0-0-0-0-0-0-0-0-0-0-0-----------------------------|
                                            Makes.ill..
Back to Verse
Chorus
Bridge (same chords as pre-verse)
Chorus
Comments