Used - Say Days Ago Chords & Tabs

 

Say Days Ago Chords & Tabs

Used Chords & Tabs

Version: 2 Type: Bass Tab 0 ratings
1 star 2 stars 3 stars 4 stars 5 stars
comments

Say Days Ago Bass Tab

   
Band:  The Used
Song:  Say days ago
Tuning:  Standard (EADG)

Intro:
G|-0-0-| 
D|-0-0-| x4
A|-0-0-|
E|-0-0-|

Intro Part 2:
G|--------------------------|
D|--------------------------| x4
A|--------------------------|
E|0-0-2-0-0-0-0-2-0-2-0-0-2-|

Verse:
G|-------4h2---------------|
D|22222-------------2------| x3
A|------------0-2-3---3-2--|
E|-------------------------|

Verse part 2:
G|-------4h2-4h2-444-|
D|22222--------------| x1
A|-------------------|
E|-------------------|

Verse:  x3
Verse part 2:  x1
[ Tab from: http://www.guitartabs.cc/tabs/u/used/say_days_ago_btab_ver_2.html ]
Pre Chorus:
G|------------------|
D|-0h2222220--------| x4
A|------------------|
E|-----------5-4444-|

Chorus:
G|----------------------------------|
D|----------------------------------| x1
A|-7(x16)-5(x16)-3(x16)-2(x8)-0(x8)-|
E|----------------------------------|




Post Chorus:
G|--------------|
D|--------------| x1
A|--------------|
E|2-2-0---2-2-0-|

Verse:  x3
Verse Part 2: x1
Verse:  x3
Verse Part 2: x1
Pre Chorus:  x4
Chorus: x1

Bridge:
G|---------------------------------------------------------|
D|---------------------------------------------------------|x1
A|---------------------------------------------------------|
E|-0~--44-4-4~--4~--44-4-4~----4-4-4~---4-4-4~----4-4-4~-|

Chorus:  x2

~ = Let note ring out

That's about it..
Comments