Used - Say Days Ago Chords & Tabs

 

Say Days Ago Chords & Tabs

Used Chords & Tabs

Version: 1 Type: Bass Tab 0 ratings
1 star 2 stars 3 stars 4 stars 5 stars
comments

Say Days Ago Bass Tab

-------------------------------------------------------------------------------
			     Say Days Ago - The Used
-------------------------------------------------------------------------------
Tabbed By : Connor Johnson
Tuning:normal

INTRO
G|------------------------------------------------------------------------|
D|------------------------------------------------------------------------|
A|------------------------------------------------------------------------|
E|-4-444----4-444----4-444-4444 STOP-44444444444444444444444-444-4-444----|

VERSE
G|------------------------------------------------------------------------|
D|---9-7-66---------------------------------------------------------------|
A|-77--------222h4p2h4----------------------------------------------------|
E|------------------------------------------------------------------------|
[ Tab from: http://www.guitartabs.cc/tabs/u/used/say_days_ago_btab.html ]
PRE-CHORUS
G|------------------------------------------------------------------------|
D|------------------------------------------------------------------------|
A|--7---777-77-55555-77777-5555-------------------------------------------|
E|------------------------------------------------------------------------|
CHORUS
G|------------------------------------------------------------------------|
D|------------------------------------------------------------------------|
A|--7777777777-55555555555-3333333333-2222222222--------------------------|
E|------------------------------------------------------------------------|
POST-CHORUS
G|------------------------------------------------------------------------|
D|------------------------------------------------------------------------|
A|-----------------7--------7---------------------------------------------|
E|-000---000--------0-7-------0-7-----------------------------------------|
BRIDGE
G|------------------------------------------------------------------------|
D|------------------------------------------------------------------------|
A|------------------------------------------------------------------------|
E|-0---000---0-stop-000-0-000-00------------------------------------------|
 
THATS IT, BUT JUST FIGURE OUT THE ORDER, AND GET SOMEONE TO FIGURE
OUT A GUITAR TAB FOR THIS SONG!!!
Comments