Used - Poetic Tragedy Chords & Tabs

 

Poetic Tragedy Chords & Tabs

Used Chords & Tabs

Version: 3 Type: Tab 0 ratings
1 star 2 stars 3 stars 4 stars 5 stars
comments

Poetic Tragedy Tab

   
-------------------------------------------------------------------------------
			 POETIC TRAGEDY - The Used
-------------------------------------------------------------------------------

Tabbed by: Moonie
Email: Foley92986@aol.com	

Tuning: DADGBe (Drop D)

There is one guitar....I like to use Heavy Distortion with the volume knob on the
guitar turned down to about 1 or 2 and then turn it back up for the chorus
The Used kick ass....nuff said....

Intro/Verse (Light overdrive)
e|-----2-------2-------2----------0-(2)-----2-------2-------2---------0-(2)--|
B|------------------------------3-----------------------------------3--------|
G|---2---2---2---2---2----2---2-----------2---2---2---2---2---2---2----------|
D|-0-------0-------0--------0-----------0-------0-------0-------0------------|
A|---------------------------------------------------------------------------|
D|---------------------------------------------------------------------------|

Right Before Chorus 
e|---------------------------------------------------------------------------|
B|--3-(Let this note ring out as you increase your volume)-------------------|
G|---------------------------------------------------------------------------|
D|---------------------------------------------------------------------------|
A|---------------------------------------------------------------------------|
D|---------------------------------------------------------------------------|
[ Tab from: http://www.guitartabs.cc/tabs/u/used/poetic_tragedy_tab_ver_3.html ]
Chorus (Heavy Distortion)
e|-2-2-2-2-2-2-2-3-3-3-3-3-3-3-3-2-2-2-2-2-2-2-3-3-3-3-3-3-3-----------------|
B|-3-3-3-3-3-3-3-3-3-3-3-3-3-3-3-3-3-3-3-3-3-3-3-3-3-3-3-3-3-----------------|
G|-2-2-2-2-2-2-2-0-0-0-0-0-0-0-0-2-2-2-2-2-2-2-0-0-0-0-0-0-0-9-9-9-9-9-9-----|
D|-0-0-0-0-0-0-0-2-2-2-2-2-2-2-2-0-0-0-0-0-0-0-2-2-2-2-2-2-2-x-x-x-x-x-x-----|
A|-0-0-0-0-0-0-0-2-2-2-2-2-2-2-2-0-0-0-0-0-0-0-2-2-2-2-2-2-2-7-7-7-7-7-7-----|
D|-0-0-0-0-0-0-0-2-2-2-2-2-2-2-2-0-0-0-0-0-0-0-2-2-2-2-2-2-2-----------------|

e|-2-2-2-2-2-2-2-3-3-3-3-3-3-3-3-2-2-2-2-2-2-2-3-3-3-3-3-3-3--|
B|-3-3-3-3-3-3-3-3-3-3-3-3-3-3-3-3-3-3-3-3-3-3-3-3-3-3-3-3-3--|
G|-2-2-2-2-2-2-2-0-0-0-0-0-0-0-0-2-2-2-2-2-2-2-0-0-0-0-0-0-0--|
D|-0-0-0-0-0-0-0-2-2-2-2-2-2-2-2-0-0-0-0-0-0-0-2-2-2-2-2-2-2--|
A|-0-0-0-0-0-0-0-2-2-2-2-2-2-2-2-0-0-0-0-0-0-0-2-2-2-2-2-2-2--|
D|-0-0-0-0-0-0-0-2-2-2-2-2-2-2-2-0-0-0-0-0-0-0-2-2-2-2-2-2-2--|

Bridge
e|-0-0-0-0-0-0-0-0-3-3-3-3-3-3-3-3-0-0-0-0-0-0-0-0-3-3-3-3-3-3-3-3-3-3-3-----|
B|-2-2-2-2-2-2-2-2-3-3-3-3-3-3-3-3-2-2-2-2-2-2-2-2-3-3-3-3-3-3-3-3-3-3-3-----|
G|-2-2-2-2-2-2-2-2-0-0-0-0-0-0-0-0-2-2-2-2-2-2-2-2-0-0-0-0-0-0-0-0-0-0-0-----|
D|-2-2-2-2-2-2-2-2-2-2-2-2-2-2-2-2-2-2-2-2-2-2-2-2-2-2-2-2-2-2-2-2-2-2-2-----|
A|-0-0-0-0-0-0-0-0-2-2-2-2-2-2-2-2-0-0-0-0-0-0-0-0-2-2-2-2-2-2-2-2-2-2-2-----|
D|-----------------2-2-2-2-2-2-2-2-----------------2-2-2-2-2-2-2-2-2-2-2-----|


| /  slide up
| \  slide down
| h  hammer-on
| p  pull-off
| ~  vibrato
| +  harmonic
| x  Mute note

===============================================================================
Comments