Used - On My Own Chords & Tabs

 

On My Own Chords & Tabs

Used Chords & Tabs

Version: 2 Type: Tab 0 ratings
1 star 2 stars 3 stars 4 stars 5 stars
comments

On My Own Tab

Ok this is a good song but im not to sure about my tab email me at Blink182skater129@msn.com

Acoustic Guitar

Intro x1

E ----0----0---------------0----0 -0-0--0--0--0--0---0--0--0-0-0--0-0---|
B ----5----5----------5----5----5--5-5--5--5--5--5---5--5--5-5-5--5-5---|
G -----6----6------6----6-------6--6-6--6--6--6--6---6--6--6-6-6--6-6---|
D -----------7-------7----7-----7--7-7--7--7--7--7---7--7--7-7-7--7-7---|
A ---5---5-------5--------------4--4-4--4--4--4--4---7--7--7-7-7--7-7---|
D --0----------0----------------4--4-4--4--4--4--4---7--7--7-7-7--7-7---|


E ----0----0---------------0----0 -0-0--0--0--0--0---0-------0-0--0-0---|
B ----5----5----------5----5----5--5-5--5--5--5--5---5-------5-5--5-5---|
G -----6----6------6----6-------6--6-6--6--6--6--6---6-------6-6--6-6---|
D -----------7-------7----7-----7--7-7--7--7--7--7---7-------7-7--7-7---|
A ---5---5-------5--------------4--4-4--4--4--4--4---7-------7-7--7-7---|
D --0----------0----------------4--4-4--4--4--4--4---7-------7-7--7-7---|

Verse x 2

E ----0----0---------------0----0 -0-0--0--0--0--0---0--0--0-0-0--0-0---|
B ----5----5----------5----5----5--5-5--5--5--5--5---5--5--5-5-5--5-5---|
G -----6----6------6----6-------6--6-6--6--6--6--6---6--6--6-6-6--6-6---|
D -----------7-------7----7-----7--7-7--7--7--7--7---7--7--7-7-7--7-7---|
A ---5---5-------5--------------4--4-4--4--4--4--4---7--7--7-7-7--7-7---|
D --0----------0----------------4--4-4--4--4--4--4---7--7--7-7-7--7-7---|

Chorusx2

E ---0--0-0-0--0-0--0-0-0-0--0--0-0--0--0-0-0--0-0--0-0-0-0--0--0-0------|
B ---0--0-0-0--0-0--0-0-0-0--0--0-0--0--0-0-0--0-0--0-0-0-0--0--0-0------|
G ---2--2-2-2--2-2--2-2-2-2--2--2-2--2--2-2-2--2-2--2-2-2-2--2--2-2------|
D ---2--2-2-2--2-2--2-2-2-2--2--2-2--4--4-4-4--4-4--4-4-4-4--4--4-4------|
A ---2--2-2-2--2-2--2-2-2-2--2--2-2--4--4-4-4--4-4--4-4-4-4--4--4-4------|
D ---2--2-2-2--2-2--2-2-2-2--2--2-2--4--4-4-4--4-4--4-4-4-4--4--4-4------|

Chorusx1

E ---0--0-0-0--0-0--0-0-0-0--0--0-0--|
B ---0--0-0-0--0-0--0-0-0-0--0--0-0--|
G ---2--2-2-2--2-2--2-2-2-2--2--2-2--|
D ---2--2-2-2--2-2--2-2-2-2--2--2-2--|
A ---2--2-2-2--2-2--2-2-2-2--2--2-2--|
D ---2--2-2-2--2-2--2-2-2-2--2--2-2--|

pre verse x1

E ------0---------0---------0----------0-0-0------------------------------|
B ------5---------5---------5----------0-0-0------------------------------|
G ----6---6-----6---6-----6---6---6----2-2-2------------------------------|
D -4-------4-6-------4-7-------7---7---2-2-2------------------------------|
A -------------------------------------2-2-2------------------------------|
D -------------------------------------2-2-2------------------------------|

pre verse x1

E ------0---------0---------0-------0--0--0----------------------------|
B ------5---------5---------5-------5--5--5----------------------------|
G ----6---6-----6---6-----6---6---6-6--6--6----------------------------|
D -4-------4-6-------4-7-------7----7--7--7----------------------------|
A ---------------------------------------------------------------------|
D ---------------------------------------------------------------------|

Verse x 4
[ Tab from: http://www.guitartabs.cc/tabs/u/used/on_my_own_tab_ver_2.html ]
E ----0----0---------------0----0 -0-0--0--0--0--0---0--0--0-0-0--0-0---|
B ----5----5----------5----5----5--5-5--5--5--5--5---5--5--5-5-5--5-5---|
G -----6----6------6----6-------6--6-6--6--6--6--6---6--6--6-6-6--6-6---|
D -----------7-------7----7-----7--7-7--7--7--7--7---7--7--7-7-7--7-7---|
A ---5---5-------5--------------4--4-4--4--4--4--4---7--7--7-7-7--7-7---|
D --0----------0----------------4--4-4--4--4--4--4---7--7--7-7-7--7-7---|


Chorusx2

E ---0--0-0-0--0-0--0-0-0-0--0--0-0--0--0-0-0--0-0--0-0-0-0--0--0-0------|
B ---0--0-0-0--0-0--0-0-0-0--0--0-0--0--0-0-0--0-0--0-0-0-0--0--0-0------|
G ---2--2-2-2--2-2--2-2-2-2--2--2-2--2--2-2-2--2-2--2-2-2-2--2--2-2------|
D ---2--2-2-2--2-2--2-2-2-2--2--2-2--4--4-4-4--4-4--4-4-4-4--4--4-4------|
A ---2--2-2-2--2-2--2-2-2-2--2--2-2--4--4-4-4--4-4--4-4-4-4--4--4-4------|
D ---2--2-2-2--2-2--2-2-2-2--2--2-2--4--4-4-4--4-4--4-4-4-4--4--4-4------|

Chorusx1

E ---0--0-0-0--0-0--0-0-0-0--0--0-0--|
B ---0--0-0-0--0-0--0-0-0-0--0--0-0--|
G ---2--2-2-2--2-2--2-2-2-2--2--2-2--|
D ---2--2-2-2--2-2--2-2-2-2--2--2-2--|
A ---2--2-2-2--2-2--2-2-2-2--2--2-2--|
D ---2--2-2-2--2-2--2-2-2-2--2--2-2--|

"on my own" bridge part 2 x1

E -----0---------0---------0----------0-----0-----0-----0-----0-------0---|
B -----5---------5---------5----------5-5-5-5-5-5-5-5-7-7-7-7-7-5-5-5-5---|
G -6-6-6-6-6-6-6-6-6-6-6-6-6-6-6-6-6--6-6-6-6-6-6-6-6-6-6-6-6-6-6-6-6-6---|
D -4-4-4-4-4-4-4-4-4-7-7-7-7-7-6-6-6--4-4-4-4-4-4-4-4-4-4-4-4-4-4-4-4-4---|
A -4-4-4-4-4-4-4-4-4-4-4-4-4-4-4-4-4--0-0-0-0-0-0-0-0-0-0-0-0-0-0-0-0-0---|
D -4-4-4-4-4-4-4-4-4-4-4-4-4-4-4-4-4--0-0-0-0-0-0-0-0-0-0-0-0-0-0-0-0-0---|


"on my own" bridge part 2 x1

E -----0---------0---------0----------0-----0-----0-----0-----0-------0---|
B -----5---------5---------5----------5-5-5-5-5-5-5-5-7-7-7-7-7-5-5-5-5---|
G -6-6-6-6-6-6-6-6-6-6-6-6-6-6-6-6-6--6-6-6-6-6-6-6-6-6-6-6-6-6-6-6-6-6---|
D -4-4-4-4-4-4-4-4-4-7-7-7-7-7-6-6-6--4-4-4-4-4-4-4-4-9-9-9-9-9-9-9-9-9---|
A -4-4-4-4-4-4-4-4-4-4-4-4-4-4-4-4-4--0-0-0-0-0-0-0-0-0-0-0-0-0-0-0-0-0---|
D -4-4-4-4-4-4-4-4-4-4-4-4-4-4-4-4-4--0-0-0-0-0-0-0-0-0-0-0-0-0-0-0-0-0---|

the real way is like this
"on my own" bridge part 2 x2

E -----0---------0---------0----------0-----0-----0-----0-----0-------0---|
B -----5---------5---------5----------5-5-5-5-5-5-5-5-7-7-7-7-7-5-5-5-5---|
G -6-6-6-6-6-6-6-6-6-6-6-6-6-6-6-6-6--6-6-6-6-6-6-6-6-6-6-6-6-6-6-6-6-6---|
D -4-4-4-4-4-4-4-4-4-4-4-4-4-4-4-4-4--0-0-0-0-0-0-0-0-0-0-0-0-0-0-0-0-0---|
A -4-4-4-4-4-4-4-4-4-4-4-4-4-4-4-4-4--0-0-0-0-0-0-0-0-0-0-0-0-0-0-0-0-0---|
D -4-4-4-4-4-4-4-4-4-4-4-4-4-4-4-4-4--0-0-0-0-0-0-0-0-0-0-0-0-0-0-0-0-0---|

Chorusx2

E ---0--0-0-0--0-0--0-0-0-0--0--0-0--0--0-0-0--0-0--0-0-0-0--0--0-0------|
B ---0--0-0-0--0-0--0-0-0-0--0--0-0--0--0-0-0--0-0--0-0-0-0--0--0-0------|
G ---2--2-2-2--2-2--2-2-2-2--2--2-2--2--2-2-2--2-2--2-2-2-2--2--2-2------|
D ---2--2-2-2--2-2--2-2-2-2--2--2-2--4--4-4-4--4-4--4-4-4-4--4--4-4------|
A ---2--2-2-2--2-2--2-2-2-2--2--2-2--4--4-4-4--4-4--4-4-4-4--4--4-4------|
D ---2--2-2-2--2-2--2-2-2-2--2--2-2--4--4-4-4--4-4--4-4-4-4--4--4-4------|

Chorusx1

E ---0--0-0-0--0-0--0-0-0-0--0--0-0--|
B ---0--0-0-0--0-0--0-0-0-0--0--0-0--|
G ---2--2-2-2--2-2--2-2-2-2--2--2-2--|
D ---2--2-2-2--2-2--2-2-2-2--2--2-2--|
A ---2--2-2-2--2-2--2-2-2-2--2--2-2--|
D ---2--2-2-2--2-2--2-2-2-2--2--2-2--|

"on my own" bridge x4

E ------0---------0---------0----------0-0-0------------------------------|
B ------5---------5---------5----------0-0-0------------------------------|
G ----6---6-----6---6-----6---6---6----2-2-2------------------------------|
D -4-------4-6-------4-7--------7---7--2-2-2------------------------------|
A -------------------------------------2-2-2------------------------------|
D -------------------------------------2-2-2------------------------------|
Comments