Used - Noises And Kisses Chords & Tabs

 

Noises And Kisses Chords & Tabs

Used Chords & Tabs

Version: 3 Type: Tab 0 ratings
1 star 2 stars 3 stars 4 stars 5 stars
comments

Noises And Kisses Tab

   
-------------------------------------------------------------------------------
                         NOISE AND KISSES - The Used
-------------------------------------------------------------------------------

Tabbed by: Aaron M.
Email: goldenfingers46@yahoo.com
IM: nanny4669

Tuning: Drop D
Effects: Distortion, Phaser

INTRO:
   D DUDUD DUDUD DUDUD DUDUD DUDU etc...
e|---------------------------------------------------------------------------|
B|-1-11111-11111-11111-11111-11111-11111-11111-11111-11111-11111-1111--------|
G|---------------------------------------------------------------------------|
D|---------------------------------------------------------------------------|
A|---------------------------------------------------------------------------|
E|---------------------------------------------------------------------------|
Verse 1:
          Look in my eyes...     				I rip my heart out...

e|---------------------------------------------------------------------------|
B|---------------------------------------------------------------------------|
G|---------------------------------------------------------------------------|
D|---33p2--33p2--55p2--55p2--33p2--33p2--55p2--55p2--33p2--33p2--55p225p2---|
A|---------------------------------------------------------------------------|
E|-00----00----55----55----00----00----55----55----00----00----55----55------|

  worth my time...            Sooooo...                        Hard to see up..
                                D DUDUD DUDUD DUDUD DUDUD
e|---------------------------------------------------------------------------|
B|---------------------------------------------------------------------------|
G|-------------------------5-55555-55555-55555-55555-------------------------|
D|--33p2--33p2--55p2--55p2-5-55555-55555-55555-55555---33p2--33p2--55p2--55p2|
A|-------------------------3-33333-33333-33333-33333-------------------------|
E|00----00----55----55-----5-55555-55555-55555-55555-00----00----55----55----|

                       The orange I choked                     Soooo...
        				                       DUUU DUUU DUUU
e|---------------------------------------------------------------------------|
B|---------------------------------------------------------------------------|
G|---------------------------------------------------------------------------|
D|--33p2--33p2--55p2--25p2--33p2--33p2--55p2--55p2--33p2--33p2-5555-5555-5555|
A|-------------------------------------------------------------5555-5555-5555|
E|00----00----55----55----00----00----55----55----00----00-----5555-5555-5555|
Chorus:
          Share with  me...         need it right now...
   DUDUDU D DUDUD DUDUD DUDUD DUDUD etc...
e|---------------------------------------------------------------------------|
B|---------------------------------------------------------------------------|
G|--------------------2-22222-2222------------------------------------2-22222|
D|-555555-3-33333-33332-22222-22223-33333-33335-55555-55553-33333-33332-22222|
A|-555555-3-33333-33330-00000-00003-33333-33335-55555-55553-33333-33330-00000|
E|-555555-3-33333-3333x-xxxxx-xxxx3-33333-33335-55555-55553-33333-3333x-xxxxx|
                                     Verse 2:
                                                         	                               
                                                                                        
                          Give it to me...
e|---------------------------------------------------------------------------|
B|---------------------------------------------------------------------------|
G|-2222----------------------------------------------------------------------|
D|-22223-33333-33335-55555-55555-55555-5555---33p2--33p2--25p2--55p2--55p2--3|
A|-00003-33333-33335-55555-55555-55555-5555----------------------------------|
E|-xxxx3-33333-33335-55555-55555-55555-5555-00----00----55----55----00----00-|

[ Tab from: http://www.guitartabs.cc/tabs/u/used/noises_and_kisses_tab_ver_3.html ]
		Its never been me... 			Yeeeeaaaahhhh...
						   DUUU DUUU DUUU D DUDU
e|---------------------------------------------------------------------------|
B|---------------------------------------------------------------------------|
G|---------------------------------------------------------------------------|
D|3p2--55p2--25p2--33p2--33p2--25p2--25p2--33p2--33p2-5555-5555-5555-5-5555--|
A|----------------------------------------------------5555-5555-5555-5-5555--|
E|---55----55----00----00----55----55----00----00-----5555-5555-5555-5-5555--|
Chorus:
   Share with  me...    				  Or write me off...
   D DUDUD DUDUD DUDUD DUDUD DUDUD etc...
e|---------------------------------------------------------------------------|
B|---------------------------------------------------------------------------|
G|-------------2-22222-2222------------------------------------2-22222-2222--|
D|-3-33333-33332-22222-22223-33333-33335-55555-xxxx3-33333-33332-22222-22223-|
A|-3-33333-33330-00000-00003-33333-33335-55555-xxxx3-33333-33330-00000-00003-|
E|-3-33333-3333x-xxxxx-xxxx3-33333-33335-55555-xxxx3-33333-3333x-xxxxx-xxxx3-|
                               Bridge:
   	        won't open up..       Screaming...
 				    D DUDUD DUDUD DUDUD DUDUD DUDUD ect...
e|---------------------------------------------------------------------------|
B|---------------------------------------------------------------------------|
G|---------------------------------------------------------------------------|
D|33333-33335-55555-55555-55555-55557-77777-xxxx3-33330-00007-77777-xxxx3-333|
A|33333-33335-55555-55555-55555-55557-77777-xxxx3-33330-00007-77777-xxxx3-333|
E|33333-33335-55555-55555-55555-55557-77777-xxxx3-33330-00007-77777-xxxx3-333|

   	Screaming...            	  		Screaming...

e|---------------------------------------------------------------------------|
B|---------------------------------------------------------------------------|
G|---------------------------------------------------------------------------|
D|30-00007-77777-xxxx3-33330-00007-77777-xxxx5-55555-55555-55555-5555--------|
A|30-00007-77777-xxxx3-33330-00007-77777-xxxx5-55555-55555-55555-5555--------|
E|30-00007-77777-xxxx3-33330-00007-77777-xxxx5-55555-55555-55555-5555--------|
Verse 1(reprise):
      Look in my eyes...                                         It's  worth my

e|---------------------------------------------------------------------------|
B|---------------------------------------------------------------------------|
G|---------------------------------------------------------------------------|
D|---33p2--33p2--25p2--55p2--33p2--33p2--55p2--25p2--33p2--33p2--25p2--55p2--|
A|---------------------------------------------------------------------------|
E|-00----00----55----55----00----00----55----55----00----00----55----55----00|
                                Chorus:
   			   Soooo...    Share with        me...
	       D DUDUD DUDUD      D DUDUD DUDUD DUDUD DUDUD DUDUD etc...
e|---------------------------------------------------------------------------|
B|---------------------------------------------------------------------------|
G|-------------5-55555-55555------------------2-22222-2222-------------------|
D|33p2--33p2---5-55555-55555------3-33333-33332-22222-22223-33333-33335-55555|
A|-------------3-33333-33333------3-33333-33330-00000-00003-33333-33335-55555|
E|----00-------5-55555-55555------3-33333-3333x-xxxxx-xxxx3-33333-33335-55555|

e|---------------------------------------------------------------------------|
B|---------------------------------------------------------------------------|
G|-----------------2-22222-2222----------------------------------------------|
D|-xxxx3-33333-33332-22222-22223-33333-33335-55555-55555-55555-55553-33333-33|
A|-xxxx3-33333-33330-00000-00003-33333-33335-55555-55555-55555-55553-33333-33|
E|-xxxx3-33333-3333x-xxxxx-xxxx3-33333-33335-55555-55555-55555-55553-33333-33|

e|---------------------------------------------------------------------------|
B|---------------------------------------------------------------------------|
G|--2-22222-2222------------------------------------2-22222-2222-------------|
D|332-22222-22223-33333-33335-55555-55553-33333-33332-22222-22223-33333-33335|
A|330-00000-00003-33333-33335-55555-55553-33333-33330-00000-00003-33333-33335|
E|33x-xxxxx-xxxx3-33333-33335-55555-55553-33333-3333x-xxxxx-xxxx3-33333-33335|

e|---------------------------------------------------------------------------|
B|---------------------------------------------------------------------------|
G|---------------------------------------------------------------------------|
D|-55555-55555---------------------------------------------------------------|
A|-55555-55555---------------------------------------------------------------|
E|-55555-55555---------------------------------------------------------------|


| p  pull-off
| x  Mute note

Verse 1:
Look in my eyes
I'm jaded now whatever that means
By sharing these things
I rip my heart out
It's worth my time
Whatever that means...
Hard to see up
My neck feels stiff until I wake up
The orange I choked
And back to my neck
It's worth my time
Whatever that means....so

Chorus:
Share with me
Cause I need it right now
Let me see you inside
Or write me off
Cause I'd rather stop now
If you won't open up

Verse 2:
Give it to me
Give me all... whatever you want
It's never been me
To want this much from you
I can see
It tears me up


Please E-mail or IM for questions, comments, requests, or anything else that you can 
of.
	-Aaron
===============================================================================
Comments