Used - Noises And Kisses Chords & Tabs

 

Noises And Kisses Chords & Tabs

Used Chords & Tabs

Version: 1 Type: Tab 0 ratings
1 star 2 stars 3 stars 4 stars 5 stars
comments

Noises And Kisses Tab

Drop D Tuning

   Intro:
e||-----------------------------||
b||-----------------------------||
g||*--5--5-5-5-5---5--5-5-5-5--*|| x 5
d||*---------------------------*||
a||-----------------------------||
D||-----------------------------||
   
   Verse 1:Palm Muted
e||-----------------------------------------------------------------------------
b||-----------------------------------------------------------------------------
g||-----------------------------------------------------------------------------
d||-0-0-3-3-2--0-0-3-3-2--0-0-5-5-2--0-0-5-5-2--0-0-3-3-2--0-0-3-3-2--0-0-5-5-2-
a||-----------------------------------------------------------------------------
D||-----------------------------------------------------------------------------

   -----------------------------------------------------------------------------
   -----------------------------------------------------------------------------
   -----------------------------------------------------------------------------
   -0-0-5-5-2--0-0-3-3-2--0-0-3-3-2--0-0-5-5-2--0-0-2-5-2--0-0-3-3-2--0-0-3-3-2-
   -----------------------------------------------------------------------------
   -----------------------------------------------------------------------------

   -----------------------||
   -----------------------||
   -----------------------||
   -0-0-5-5-2--0-0-5-5-2--||
   -----------------------||
   -----------------------||

   Bridge:
e||--------------------||
b||--------------------||
g||--------------------||
d||--3-----------------||
a||--3-----------------||
D||--3-----------------||

   Verse 2:Palm Muted
e||-----------------------------------------------------------------------------
b||-----------------------------------------------------------------------------
g||-----------------------------------------------------------------------------
d||-0-0-3-3-2--0-0-3-3-2--0-0-5-5-2--0-0-5-5-2--0-0-3-3-2--0-0-3-3-2--0-0-5-5-2-
a||-----------------------------------------------------------------------------
D||-----------------------------------------------------------------------------

   -----------------------------------------------------------------------------
   -----------------------------------------------------------------------------
   -----------------------------------------------------------------------------
   -0-0-2-5-2--0-0-3-3-2--0-0-3-3-2--0-0-5-5-2--0-0-5-5-2--0-0-3-3-2--0-0-3-3-2-
   -----------------------------------------------------------------------------
   -----------------------------------------------------------------------------

   -----------------||
   -----------------||
   -----------------||
   --5-5--5--5-5-5--||
   --5-5--5--5-5-5--||
   --5-5--5--5-5-5--||

   Chorus 1:
e||--------------||
b||--------------||
g||*------------*||
d||*-3--7--3--5-*||
a||--3--7--3--5--||
D||--3--7--3--5--||
[ Tab from: http://www.guitartabs.cc/tabs/u/used/noises_and_kisses_tab.html ]
   Verse 3:Palm Muted
e||-----------------------------------------------------------------------------
b||-----------------------------------------------------------------------------
g||-----------------------------------------------------------------------------
d||-0-0-3-3-2--0-0-3-3-2--0-0-2-5-2--0-0-5-5-2--0-0-3-3-2--0-0-3-3-2--0-0-5-5-2-
a||-----------------------------------------------------------------------------
D||-----------------------------------------------------------------------------

   -----------------------------------------------------------------------------
   -----------------------------------------------------------------------------
   -----------------------------------------------------------------------------
   -0-0-2-5-2--0-3-3-2--0-0-3-3-2--0-0-2-5-2--0-0-2-5-2--0-0-3-3-2--0-0-3-3-2-5-
   ---------------------------------------------------------------------------5-
   ---------------------------------------------------------------------------5-

   Chorus 2:
e||--------------||-||-----||
b||--------------||-||-----||
g||*------------*||-||-----||
d||*-3--7--3--5-*||-||--5--||
a||--3--7--3--5--||-||--5--||
D||--3--7--3--5--||-||--5--||

  Interlude:
e||-----------------------------------------||     ||-------------------------||
b||-----------------------------------------||     ||-------------------------||
g||*---------------------------------------*|| x 4 ||*-----------------------*||
d||*-7--7-7-7-7--7---3--3-3-3-3--3--0-0-0-0*||     ||*-5--5-5-5-5--5--5-5-5-5*||
a||--7--7-7-7-7--7---3--3-3-3-3--3--0-0-0-0-||     ||--5--5-5-5-5--5--5-5-5-5-||
D||--7--7-7-7-7--7---3--3-3-3-3--3--0-0-0-0-||     ||--5--5-5-5-5--5--5-5-5-5-||

   Verse 4:Palm Muted
e||-----------------------------------------------------------------------------
b||-----------------------------------------------------------------------------
g||-----------------------------------------------------------------------------
d||-0-0-3-3-2--0-0-3-3-2--0-0-2-5-2--0-0-5-5-2--0-0-3-3-2--0-0-3-3-2--0-0-5-5-2-
a||-----------------------------------------------------------------------------
D||-----------------------------------------------------------------------------

   -----------------------------------------------------------------------------
   -----------------------------------------------------------------------------
   -----------------------------------------------------------------------------
   -0-0-2-5-2--0-0-3-3-2--0-0-3-3-2--0-0-2-5-2--0-0-5-5-2--0-0-3-3-2--0-0-3-3-2-
   -----------------------------------------------------------------------------
   -----------------------------------------------------------------------------

   ---||
   ---||
   ---||
   -5-||
   -5-||
   -5-||

   Chorus 3/Ending:
e||--------------||
b||--------------||
g||*------------*|| x 4
d||*-3--7--3--5-*||
a||--3--7--3--5--||
D||--3--7--3--5--||


This set of tabs has been brought to you in part by:
   1.The people who make Mr. Rogers' Neighborhood
   2.This and other public broadcasters
   3.Viewers like you
   4.Haha,yeah,right.I slaved over this for hours by myself trying to get the
right order for the changes in the verse....have fun with this,it's a great song
from a great band.
Comments