Used - Noises And Kisses Chords & Tabs

 

Noises And Kisses Chords & Tabs

Used Chords & Tabs

Version: 1 Type: Bass Tab 0 ratings
1 star 2 stars 3 stars 4 stars 5 stars
comments

Noises And Kisses Bass Tab

Standard Tuning

Verse:
G------------------------------------------|
D------------------------------------------|
A-00-4h-4/3-00-4h-4/3-00-7h-7/6-00-7h-7/6--|
E------------------------------------------| x5

G---------------------------------------------|
D---------------------------------------------|
A-00-4h-4/3-00-4h-4/3-00-7h-7/6-00-7h-7/6--0~-|
E---------------------------------------------| 

Verse 2:
G------------------------------------------|
D------------------------------------------|
A-00-4h-4/3-00-4h-4/3-00-7h-7/6-00-7h-7/6--|
E------------------------------------------| x5

G------------------------------------------------|
D------------------------------------------------|
A-00-4h-4/3-00-4h-4/3--0-0-0-0-0-0-5-5-5-5-5-5---|
E------------------------------------------------| x1

Chorus:
G------------------------------------------|
D------------------------------------------|
A------------------------------------------|
E-5-0-2-4--4-4--4-5-2-2--4-4--4-5-0-0------|
[ Tab from: http://www.guitartabs.cc/tabs/u/used/noises_and_kisses_btab.html ]
Second Chorus:                          Extended part (second time only)
G------------------------------------------|---------------|
D------------------------------------------|---------------|
A------------------------------------------|---------------|
E-5-7-4--4-4--4-5-2-2--4-4--4-5-0-0--------|---4-4-4-5~----|

Verse 2

Bridge:
G----------------------------------------------|
D----------------------------------------------|
A----------------5-5-5-5-5-5x-3-3-3-3-3-3-3x---|
E-3-3-3-3-3-3-3x-------------------------------| x3

G-------------------------------------------------------|
D-------------------------------------------------------|
A----------------5-5-5-5-5-5-5-5-7-7-7-7-7-7-7-7-7------|
E-3-3-3-3-3-3-3x----------------------------------------| x1


Outro x2 
G-------------------------------------| 
D-------------------------------------| 
A-------------------------------------| 
E-5-0-2-4--4-4--4-5-2-2--4-4--4-6-0-0-| 

G--------------------------------------------|
D--------------------------------------------|
A--------------------------------------------|
E-5-7-4--4-4--4-5-2-2--4-4--4-5-0-0--4-4-4-5-|
Comments